, Standing In The Need Of Prayer Tabs, Chords, Lyrics

, Standing In The Need Of Prayer Tabs, Chords

 SITE MENU
 Request Tabs
 Add/Correct Tabs
 DMCA Policy
 Country Sheet Music
0

BROWSE LYRICS AND TABS BY ARTIST/BAND NAME: SEARCH HERE:
A B C D E F G H I J K L M N O P Q R S T U V W X Y Z #
 

- Standing In The Need Of Prayer (Tabs)


CD
 Sheet music
Posters
STANDING IN THE NEED OF PRAYER

  Itís  me, itís  me O Lord-, stand-ing in the need of  prayer.

E-----------------------------------------------------------------------
A--2---2---0----2- -0-----------------------------0-----0-----2-----
D------------------------5------5-----5----5--5----------------------
G-----------------------------------------------------------------------

  Itís  me, itís  me O Lord-, stand-ing in the need of  prayer.

E-----------------------------------------------------------------------
A--2---2---0----2- -0-----------------------------2-----0-----------
D------------------------5------5-----5----5--5----------------5-----
G-----------------------------------------------------------------------


Verse 1.

   Not my brother, not my sister, but itís me O Lord, standiní in the need of prayer

E---------------------------------------------------------------------------------
A--2---0------5------2----0----2-----5--2---0---2---0----------------0----0-----2-
D------------------------------------------------------5---5---5---5--------------
G---------------------------------------------------------------------------------



   Not my brother, not my sister, but itís me O Lord, standiní in the need of prayer

E---------------------------------------------------------------------------------
A--2---0------5------2----0----2-----5--2---0---2---0-----------------0----0------
D------------------------------------------------------5--5---5---5-------------5-
G---------------------------------------------------------------------------------

Repeat 3X
(v. 2.  Not the preacher, nor the deacon but itís me O Lord, standiní in the need of 
prayer. Repeat)
(v. 3. Not my father, nor my mother but itís me O Lord, standing in the need of 
prayer, repeat)
(v. 4. Not the stranger, nor my neighbor, but itís me O Lord, standing in the need 
of prayer


1755 Tabs & Chords



1755 Tabs, Tablatures, Chords, Lyrics

Buy 1755 CD
1755
Buy 1755 CD

  1. 1755 - Boire Ma Bouteille Chords
  2. 1755 - Le Jardinier Du Couvent Chords
  3. 1755 - Standing In The Need Of Prayer Tabs
  4. 1755 - Vivre ņ La Baie Chords



cowboylyrics.com
All lyrics are property and copyright of their owners. All lyrics provided for educational purposes only.