, Make A Little Noise Tabs, Chords, Lyrics

, Make A Little Noise Tabs, Chords

 SITE MENU
 Request Tabs
 Add/Correct Tabs
 DMCA Policy
 Country Sheet Music
0

BROWSE LYRICS AND TABS BY ARTIST/BAND NAME: SEARCH HERE:
A B C D E F G H I J K L M N O P Q R S T U V W X Y Z #
 

- Make A Little Noise (Chords)


CD
 Sheet music
Posters
Tuning: Standard

Chords: B  A  E

Intro:
|---------------------------------------------------------|
|----7\4-2------------------------------------------------|
|----7\4-2h4------2---------------------------------------|
|-------------2h4---4p2p0--2p0----------0-------------0---|
|------------------------------2------0---2--2------0---2-|
|---------------------------------0h2-----------0h2-------|
or
|---------------------------------------------------------|
|----7\4-2------------------------------------------------|
|----7\4-2h4------2---------------------------------------|
|-------------2h4---4p2p0--2p0----------------------------|
|------------------------------2------0-5p2--2------0-5p2-|
|---------------------------------0h2-----------0h2-------|

RIFF 'A'
   B5     A5    E5
|---------------------------------------------------------|
|---------------------------------------------------------|
|--44-----2-2--------2-2-------2-2---44-------------------|
|--44-----2-2---22---2-2---22--2-2---44---------0---------|
|--22-----0-0---22---0-0---22--0-0---22-------0---2-------|
|---------------00---------00-------------0h2-------------|

Intro
RIFF 'A'

(Verse 1)
  B                        A
No matter how hard that I try no one seems to let me by
  E                           B
And I don't know how much I can take
  B                         A
Cause every step I take in life gets a little harder
 E                               B
But I'm gonna be alright at the end of the day
  A                          B
I bust my back for every dollar that I make
  A                              F#
When the weekend comes you'd better get out of my way

(chorus)
           B                      A
Cause it's time to unwind, gonna settle my nerves
        E          	  	  	      A 	      
Gonna do what this boy, this boy deserves 
           B 	  	      A 	 
I've been working all week, set me free
          F#                            
 A 	   B 	  	     A
And it's Friday, send a shot my way
      E 	  	  	  	  	      A
Gonna get up and drink another night away
 	 B 	  	  	    A 	  	 E
I'm feeling alright, gonna do it all night
     	 A 	  	 RIFF A
Gonna make a little noise 


RIFF 'A' Again - Accompanied by Short Solo  

(Verse 2)
    B 	  	  	  	  	    A
Now I wasn't born a rich mans son but I'll be the first to tell everyone
  E 	  	  	 B
That I'm proud of the way I was raised
  B 	  	  	  	 A 	  	  	  	 E
You'll never catch me in a Gucci suit, I'll be in my cowboy boots
 	 E 	  	     B
And these old torn jeans everyday
   A 	  	  	  B 	  	  	 A
I bust my back for every dollar that I make
 A 	  	  	      F#
When the weekend comes you'd better get out of my way


(chorus)
           B                       A        
Cause it's time to unwind, gonna settle my nerves
        E          	  	  	      A 	      
Gonna do what this boy, this boy deserves 
           B 	  	      A 	 
I've been working all week, set me free
          F#                            
 A 	   B 	  	     A
And it's Friday, send a shot my way
      E 	  	  	  	  	      A
Gonna get up and drink another night away
 	 B 	  	  	    A 	  	 E
I'm feeling alright, gonna do it all night
     	 A 	  	 RIFF 'A' 
Gonna make a little noise 

|---------------------------------------------------------|
|---------------------------------------------------------|
|--44-----2-2--------2-2-------2-2---4--------------------|
|--44-----2-2---22---2-2---22--2-2---4-Let Ring-----------|
|--22-----0-0---22---0-0---22--0-0---2--------------------|
|---------------00---------00-----------------------------|

|---------------------------------------------------------|
|---------------------------------------------------------|
|--44-----44-----44-----44--7--9--------------------------|
|--44-----44-----44-----44--7--9-Let Ring-----------------|
|--22-----22-----22-----22--5--7--------------------------|
|---------------------------------------------------------|

(chorus)
   NC
Cause it's time to unwind, gonna settle my nerves
                 	  	  	       	      
Gonna do what this boy, this boy deserves 
            	  	       	 
I've been working all week, set me free
                                     
  	   B 	  	     A
And it's Friday, send a shot my way
      E 	  	  	  	  	      A
Gonna get up and drink another night away
 	 B 	  	  	    A 	  	 E
I'm feeling alright, gonna do it all night
     	 A 	  	 RIFF 'A' 
Gonna make a little noise

 
Gonna make a little noise 

   B5     A5    E5
|---------------------------------------------------------|
|---------------------------------------------------------|
|--44-----2-2--------2-2-------2-2---44-------------------|
|--44-----2-2---22---2-2---22--2-2---44-------------------|
|--22-----0-0---22---0-0---22--0-0---22-------------------|
|---------------00---------00-----------------------------|

I think Matt plays a guitar tuned down half step so he plays a C Bb F chord 
progression, but this is the same key as the recording. 


32 Below Tabs & Chords



32 Below Tabs, Tablatures, Chords, Lyrics

Buy 32 Below CD
32 Below
Buy 32 Below CD

  1. 32 Below - Make A Little Noise Chords
  2. 32 Below - Quit Coming Around Chords



cowboylyrics.com
All lyrics are property and copyright of their owners. All lyrics provided for educational purposes only.