Albert Lee, Bullish Boogie (part Ii) Tabs, Chords, Lyrics

Albert Lee, Bullish Boogie (part Ii) Tabs, Chords

 SITE MENU
 Request Tabs
 Add/Correct Tabs
 DMCA Policy
 Country Sheet Music
0

BROWSE LYRICS AND TABS BY ARTIST/BAND NAME: SEARCH HERE:
A B C D E F G H I J K L M N O P Q R S T U V W X Y Z #
 

Albert Lee - Bullish Boogie (part Ii) (Tabs)


Albert Lee CD
Albert Lee Sheet music
Albert Lee Posters
Albert Lee:Bullish Boogie (part II)


This is the second guitar solo to the end. Enjoy !~Cal

Note:There are many great licks in these two tabs. Even if
you don't learn the whole song, try to pick out some of 
your favorites because they lend to a great many variations


E--6--------------------------------------------------------
B-(8)r6--8--------------------------------------------------
G--------7b(9)-5-4-3-------------------3--------------------
D--------------------6b(7)-3-----3-------6b(7)-5-3-----3----
A----------------------------5\3---5p3-------------5\3---5-7
E-----------------------------------------------------------


E---------------5-------------------------------------------
B-------------5---------------------6-3h4p3-----------------
G-----5-7b(9)-----8\7-5-7-5-----------------5-4-3---1h2-----
D-5-7-----------------------8-5-6h7---------------3-----3-0-
A-----------------------------------------------------------
E-----------------------------------------------------------


E-----------------------------------------------------------
B-----1---3---4---5---8---9----10---9-9p8p6---6\4-3---------
G-------------------------------------------7-------5-4-3-0-
D-1h2---3---4---5---8---9---10----9-------------------------
A-----------------------------------------------------------
E-----------------------------------------------------------


E------------------------------------------------8-10/13-11-
B-----------------------------------------6-8h10------------
G-1b(2)---------------3---------------6-7-------------------
D-------3-2-1-----3-5---6\5p3---3-5h7-----------------------
A-------------3h5-------------5-----------------------------
E-----------------------------------------------------------


E-------------------------------------------5---------5---6-
B-13-12-11----------------------------------------------8---
G----------13-10----------------------8b(9)---7-8b(9)-------
D----------------13-10--------------------------------------
A----------------------13-11--------------------------------
E----------------------------13-13-13-----------------------


E---5-------------------------------------------------------
B-8---8-5---6-0-3h4p3-------------------4-4/5-0---4p0---3p0-
G---------5-----------5-4-3-1b(2)-------4-4/5---5-----5-----
D---------------------------------3-0-3---------------------
A-----------------------------------------------------------
E-----------------------------------------------------------


E-----------------------------------------------------------
B---4p0---3p0---4p0---3p0---4b(5)-4b(5)-4b(5)---------------
G-5-----5-----5-----5-----5-------------------5-4-3---------
D---------------------------------------------------6-3-5---
A---------------------------------------------------------5-
E-----------------------------------------------------------


E------------------------------8-----------------------10---
B---------6-6-6-6-6-6-6-6-8/10---11b(13)-8----------10----11
G-5-----5-----------------------------------10b(12)---------
D---5h7-----------------------------------------------------
A-----------------------------------------------------------
E-----------------------------------------------------------


E----------------------------------------------13---------13
B-8---------------------------------6---6---------16b(18)---
G---11\10p8----8b(9)------------5h7---7---7/14--------------
D-----------10-------10-7-8-6h7-----------------------------
A-----------------------------------------------------------
E-----------------------------------------------------------


E-----------------------------------------------------------
B-16-13---------------------------------------------13-14-15
G-------16\15p13----15----13b(14)----------12-13-14---------
D----------------15----15---------15-12-15------------------
A-----------------------------------------------------------
E-----------------------------------------------------------


E-13--------------------------------------------------------
B----15-16-13-----------------------------------------------
G-------------16-15-13h14-----------------------------------
D-------------------------15-12-13----13-(15)r13------------
A----------------------------------15------------15---------
E---------------------------------------------------16\15-13


E-----------------------------------------------------------
B-----8-8---8-----------------------------------------------
G-7/9-----9----7b(9)r7\5-2-4b(6)-2-----0--------------------
D----------------------------------5-2---4b(5)r4-2-1-0------
A------------------------------------------------------0----
E-----------------------------------------------------------


E-------------------------2---------------------------------
B-----------1-0-0-3\1---0-3-3-7-12----10--------------------
G-----------2-1-0-4\2---0---4-7-12----10h11-----------------
D-------2/4-----------0------------12-------12-10-----------
A-2h3h4-------------------------------------------12-11-10--
E-----------------------------------------------------------


E---------------------------3\1-----------------------------
B---------------------------------6-5-3---------------------
G-----------0-4-5-0---2-3-4-----0-7-5-3b(4)-----------5p3p0-
D-------------------0-----------------------5-3---3-5-------
A-8b(10)-10-------------------------------------5-----------
E-----------------------------------------------------------


E---------------------------------5---6---5-----------------
B-------------------------------5---8---8---8-7-6---5-------
G-3b(4)---0-------------5-7b(9)-------------------8---5---5-
D-------5---5------5-7----------------------------------7---
A--------------3/7------------------------------------------
E-----------------------------------------------------------


E-------8----8-8-8-8-8-8-8-8-
B-----8---11-----------------
G-7/9------------------------
D----------------------------
A----------------------------
E----------------------------


Outro Melody

E-----------------------------------------------------------
B-----5-----5-----5-----5-----------4-----4-----4p3---1-----
G-0---5-0---5-0---5-0---5---0-------5-0---5-0---5p3---1h2---
D---8-----8-----8-----8---8---5/7\6-----7-----7-----3-----3-
A-----------------------------------------------------------
E-----------------------------------------------------------


E-----------------------------8------8------8------8--------
B-------5-----5-----5-----5-6-8b(10)-8b(10)-8b(10)-8b(10)---
G-------5-0---5-0---5-0---5-5-------------------------------
D-0---------8-----8-----8-----------------------------------
A---3/7-----------------------------------------------------
E-----------------------------------------------------------


E-8------5---5----------------------------------------------
B-8b(10)-6---6-----------5-----5-----5-----5-----------4----
G----------7---8-7-5-----5-0---5-0---5-0---5---0-------5-0--
D--------------------5/7-----8-----8-----8---8---5/7\6-----7
A-----------------------------------------------------------
E-----------------------------------------------------------


E-----------------------------------------------------------
B-4-----4p3---1-------------------------------------6---9b(11)
G-5-0---5p3---1h2---------------3---------------5-----7-----
D-----7-----3-----3-2-1-----3-5---6\5p3---3-5/7---7---------
A-----------------------3h5-------------5-------------------
E-----------------------------------------------------------


E-6-7-8-8-----------------------------------11-0---------11-
B---------8b(10)-8-6---8b(10)-6/18--11b(13)------11b(13)----
G--------------------7--------------------------------------
D-----------------------------------------------------------
A-----------------------------------------------------------
E-----------------------------------------------------------


E-0-0---6p4---4b(5)--------------8-10-8----------------
B-----6-----6-------6-4-----8/10--------8b(10)r8p6-----
G-----------------------5-0------------------------5-5-
D------------------------------------------------------
A------------------------------------------------------
E------------------------------------------------------


End on F Chord


Albert Lee Tabs & Chords



Albert Lee Tabs, Tablatures, Chords, Lyrics

Buy Albert Lee CD
Albert Lee
Buy Albert Lee CD

  1. Albert Lee - Bullish Boogie (part I) Tabs
  2. Albert Lee - Bullish Boogie (part Ii) Tabs
  3. Albert Lee - T-bird To Vegas Tabs



cowboylyrics.com
All lyrics are property and copyright of their owners. All lyrics provided for educational purposes only.