Albert Lee, T-bird To Vegas Tabs, Chords, Lyrics

Albert Lee, T-bird To Vegas Tabs, Chords

 SITE MENU
 Request Tabs
 Add/Correct Tabs
 DMCA Policy
 Country Sheet Music
0

BROWSE LYRICS AND TABS BY ARTIST/BAND NAME: SEARCH HERE:
A B C D E F G H I J K L M N O P Q R S T U V W X Y Z #
 

Albert Lee - T-bird To Vegas (Tabs)


Albert Lee CD
Albert Lee Sheet music
Albert Lee Posters
Albert Lee:T-Bird To Vegas


All the parts, except the solo, are played with
1 1/2 second slapback delay. Therefore, not all the notes 
are actually picked. The delay does alot of the work in
this tune. 

Intro (w/slapback delay)

E-------------------------------------------------
B-8-8-8-------------------------------------------
G-9-9-9-9--9--9--6-6-6----------7-8\7-9\8-10\9-11-
D-------11-11-11-8-8-8-8--8--8--------------------
A----------------------10-10-10-5-6\5-7\6--8\7-9--
E-------------------------------------------------


A section Chords

| | | | | | |  |  | | | | | | |  | | 
|G|G|C|C|G|G|A7|D7|G|G|C|C|F|C|D7|G|  
| | | | | | |  |  | | | | | | |  | |

B Section Chords

| | | | | | | | | | | | | | | |  | 
|C|C|F|F|C|C|G|G|C|C|F|F|C|G|C|D7|  
| | | | | | | | | | | | | | | |  |


Main Melody w/slapback (Solo first time then with A Section)

 Let notes ring as much as possible
E-----1---0-------------------------------
B-1/3---3---3---0-------------------------
G-------------3---0-----0-----0-----------
D-------------------2h3---1h2-------------
A-------------------------------1h3-3\1---
E---------------------------------------3-


E-----1---0-------------------3---0-----------------------
B-1/3---3---3---0---------1h2---2---2-----1---0-1---0-1---
G-------------3---0-----0-------------0h2---2-----2-----2-
D-------------------2h3-----------------------------------
A---------------------------------------------------------
E---------------------------------------------------------


E-----1---0-------------------------------
B-1/3---3---3---0-------------------------
G-------------3---0-----0-----0-----------
D-------------------2h3---1h2-------------
A-------------------------------1h3-3\1---
E---------------------------------------3-


E-------1----------------------
B-----1------------------------
G-0h2---------0---0------------
D---------1h2---2--------------
A------------------------2-0---
E--------------------0h2-----3-


Guitar Solo

E-----------------------------3-----------------------------
B---------------------------3---6-3-------------------------
G-0---0---0-----3-5-3-5b(7)---------6-5b(6)-3---2-----------
D---5---5---3p0-------------------------------5---4/5-3-----
A-------------------------------------------------------5-4-
E-----------------------------------------------------------


E------------------------------------------------3---5---6--
B-------------0--------------------------3------------------
G---------0-3---0------0---2---0-----2-4---2-3-4---4---5---6
D------------------0h2---2---2---3h4------------------------
A-3-0-1h2---------------------------------------------------
E-----------------------------------------------------------


E-7-7/10-13-10----------------------------------------------
B--------------14-13-11----6-3-----------------6------------
G-----------------------12-----6-5-3---5-3-5/7---7-6-5-----7
D------------------------------------5-----------------7/9--
A-----------------------------------------------------------
E-----------------------------------------------------------


E----------------------------------------------------10-15\13
B---8---8-11b(13)-11-8----8-6-3-------------13bh(15)---------
G-9---9----------------10-------6-5-3b(4)--------------------
D-----------------------------------------5------------------
A------------------------------------------------------------
E------------------------------------------------------------


E----10-----------------------------------------------------
B-13----11-12-----------------------------------------------
G-------------12-10----------------7---------7-9-7----7-----
D-------------------12-11-10-7h8h9---10-9-10-------10---10-8
A-----------------------------------------------------------
E-----------------------------------------------------------


E--------------------------------------------------7p5-------
B----------------------------------3---5---3---5-8-----(10)r8
G----------------------------0-2/4---4---4---6---------------
D-9----2-3---------------0-2---------------------------------
A---10-----5-4-3---0h1h2-------------------------------------
E----------------0-------------------------------------------


E-------------------3-------------------6---6-9\8-6---5------
B-6-7-----------------5-6p5-3-5-3-0-------6---------8---7/8--
G-----7---5---0---0-----------------6/7----------------------
D-------7---2---4--------------------------------------------
A------------------------------------------------------------
E------------------------------------------------------------


E-------------------------------3----------------------------
B-6---------------------------3---6-3-3-------3--------------
G---7-6-5-3-------5---3-5b(7)-----------5-3-5---3b(4)-0------
D-----------5-3-5---5-----------------------------------3----
A---------------------------------------------------------5-4
E------------------------------------------------------------


E---------------------------
B---------------------------
G-------------0-------------
D-------0-2p0---2b(3)r2-----
A-3-1h2-----------------2---
E-------------------------3-

Repeat Main Melody with the last bit repeating 3 times then

E-----------------------------------------------------------
B-11-11-11-8-8-8--------------------------------------------
G-12-12-12-9-9-9-9--9--9--6-6-6-----------------------------
D----------------11-11-11-8-8-8-8\7-9\8-10\9-11\10-12\--5---
A-------------------------------6\5-7\6--8\7--9\8--10\--5---
E-------------------------------------------------------3---




Albert Lee Tabs & Chords



Albert Lee Tabs, Tablatures, Chords, Lyrics

Buy Albert Lee CD
Albert Lee
Buy Albert Lee CD

  1. Albert Lee - Bullish Boogie (part I) Tabs
  2. Albert Lee - Bullish Boogie (part Ii) Tabs
  3. Albert Lee - T-bird To Vegas Tabs



cowboylyrics.com
All lyrics are property and copyright of their owners. All lyrics provided for educational purposes only.