, Hot Rod Lincoln (main rif) Tabs, Chords, Lyrics

, Hot Rod Lincoln (main rif) Tabs, Chords

 SITE MENU
 Request Tabs
 Add/Correct Tabs
 DMCA Policy
 Country Sheet Music
0

BROWSE LYRICS AND TABS BY ARTIST/BAND NAME: SEARCH HERE:
A B C D E F G H I J K L M N O P Q R S T U V W X Y Z #
 

- Hot Rod Lincoln (main rif) (Tabs)


CD
 Sheet music
Posters
 E |-------------------------------|----------------------------------|
 B |-------------------------------|----------------------------------|
 G |-------------------------------|----------------------------------|
 D |-------------------------------|--------2-2-4-2-5-2-4-5-4-2-------|
 A |--------2-2-4-2-5-2-4-5-4-2----|0-0-3-4---------------------4-3---|
 E |0-0-3-4---------------------4-3|----------------------------------|
  
 E |-------------------------------|----------------------------------|
 B |-------------------------------|----------------------------------|
 G |-------------------------------|----------------------------------|
 D |--------4-4-6-4-7-4-6-7-6-4----|-2-2-----2-2-----2-2----2---------|
 A |2-2-5-6---------------------6-4|-----4-2-----4-2------4-----------|
 E |-------------------------------|----------------------------------|


Asleep at the Wheel Tabs & Chords



Asleep at the Wheel Tabs, Tablatures, Chords, Lyrics

Buy Asleep at the Wheel CD
Asleep at the Wheel
Buy Asleep at the Wheel CD

  1. Asleep at the Wheel - Choo-choo Ch'boogie Chords
  2. Asleep at the Wheel - Dance with Who Brung You Chords
  3. Asleep at the Wheel - Don't Ask Me Chords
  4. Asleep at the Wheel - Hot Rod Lincoln (main rif) Tabs
  5. Asleep at the Wheel - Miles And Miles Of Texas Chords
  6. Asleep at the Wheel - Route 66 2 Chords



cowboylyrics.com
All lyrics are property and copyright of their owners. All lyrics provided for educational purposes only.