Chet Atkins, Entertainer Tabs, Chords, Lyrics

Chet Atkins, Entertainer Tabs, Chords

 SITE MENU
 Request Tabs
 Add/Correct Tabs
 DMCA Policy
 Country Sheet Music
0

BROWSE LYRICS AND TABS BY ARTIST/BAND NAME: SEARCH HERE:
A B C D E F G H I J K L M N O P Q R S T U V W X Y Z #
 

Chet Atkins - Entertainer (Tabs)


Chet Atkins CD
Chet Atkins Sheet music
Chet Atkins Posters
Entertainer
Chet Atkins




                                                          
E||--12--14--10--------9--------|------------------------|
B||--------------12-------10----|-----7------------------|
G||-----------------------------|--9-----7-------6-------|
D||-----------------------------|-----------9-------7----|
A||-----------------------------|------------------------|
D||-----------------------------|------------------------|


                                                                         
-------------------------|-----------5--------|-------------------------|
-------------------------|-----------7--------|-----------3-------3-----|
-------------------------|-----------6--------|-------------------------|
--2--4--0----------------|-----------5--------|--2--3--4-------4-----4--|
-----------2----4--2--1--|--0-----------------|--4----------------------|
-------------------------|--------------------|--------0----------0-----|


                                                                           
------------------------|--0--1--2-----0--2--------|--0-------------------|
--3-----3------------3--|-----------3-----------2--|-------3--------------|
-------------0----------|--0--1--2-----0--2--------|--0-------------------|
-----4-------0-------4--|-----------4-----------2--|-------4--------------|
------------------------|--------0-----------0-----|------------0----2----|
--------5---------4-----|--------------------------|-------0--------------|


                                                                               
-------------------------|-------------------------|-----------------2-----0--|
----------3--------3-----|--3-----3----------------|--0--------0--3-----------|
-------------------------|-------------0---------2-|-----2--1-----1-----------|
-------4-----4--4-----4--|-----4-------0-------0---|--------------------------|
--4----------------------|-------------------------|--------------------------|
-------0-----------0-----|--------5---------4------|--------2-----------2-----|


                                                                          
--------0--------------|------------------------|------------------------|
--3--0-----------------|----------3-------3-----|--3-----3------------3--|
--1----------0---------|------------------------|-------------0----------|
-------------2---------|--3----4-------4-----4--|-----4-------0-------4--|
--------0---------4----|------------------------|------------------------|
-----------------------|-------0----------0-----|--------5---------4-----|


                                                                             
--0--1--2-----0--2--------|--0-------------------|-----0--2-----0--2--------|
-----------3-----------2--|-------3--------------|--3--------3-----------3--|
--0--1--2-----0--2--------|--0-------------------|--------------2-----------|
-----------4-----------2--|-------4--------------|--------0-----------------|
--------0-----------0-----|------------0---------|--------------------3-----|
--------------------------|-------0---------0----|--------------------------|


                                                                             
--0-----2-----0--2--------|--0-----2-----0--2--------|--0-------------------|
-----3-----3-----------3--|-----3-----3-----------2--|-------3--------------|
--------2-----------------|--------2-----0--2--------|--0-------------------|
--------------------------|-----------4-----------2--|-------4--------------|
--------2-----------1-----|--------0-----------0-----|------------0----2----|
--------------------------|--------------------------|-------0--------------|


                                                                             
------------------------|------------------------|--0--1--2-----0--2--------|
----------3-------3-----|--3-----3------------3--|-----------3-----------2--|
------------------------|-------------0----------|--0--1--2-----0--2--------|
-------4-------4-----4--|-----4-------0-------4--|-----------4-----------2--|
--4---------------------|------------------------|--------0-----------0-----|
-------0----------0-----|--------5---------4-----|--------------------------|


                                                                           
--0-------------------|-------------------------|-------------------------|
-------3--------------|----------3--------3-----|--3-----3----------------|
--0-------------------|-------------------------|-------------0---------2-|
-------4--------------|-------4-----4--4-----4--|-----4-------0-------0---|
------------0----2----|--4----------------------|-------------------------|
-------0--------------|-------0-----------0-----|--------5---------4------|


                                                                            
-----------------2-----0--|--------0--------------|------------------------|
--0--------0--3-----------|--3--0-----------------|----------3-------3-----|
-----2--1-----1-----------|--1----------0---------|------------------------|
--------------------------|-------------2---------|--3----4-------4-----4--|
--------------------------|--------0---------4----|------------------------|
--------2-----------2-----|-----------------------|-------0----------0-----|


                                                                           
------------------------|--0--1--2-----0--2--------|--0-------------------|
--3-----3------------3--|-----------3-----------2--|-------3--------------|
-------------0----------|--0--1--2-----0--2--------|--0-------------------|
-----4-------0-------4--|-----------4-----------2--|-------4--------------|
------------------------|--------0-----------0-----|------------0---------|
--------5---------4-----|--------------------------|-------0---------0----|


                                                      
-----0--2-----0--2--------|--0-----2-----0--2--------|
--3--------3-----------3--|-----3-----3-----------3--|
--------------2-----------|--------2-----------------|
--------0-----------------|--------------------------|
--------------------3-----|--------2-----------1-----|
--------------------------|--------------------------|


                                                                            
--0-----2-----0--2--------|--0-------------------|--2--3--4--5----7--5-----|
-----3-----3-----------2--|-------3--------------|--3--5--6--7----9--7-----|
--------2-----0--2--------|--0-------------------|-------------------------|
-----------4-----------2--|-------4--------------|--4--5--6--7----9--7-----|
--------0-----------0-----|------------0---------|-------------------------|
--------------------------|-------0---------0----|----------------------0--|


                                                                                
--2--3--4--5----7--5-----|--2-----------------0--2--|--0-----0-----------------|
--3--5--6--7----9--7-----|-----3-----0h-2--3-----0--|-----3-----3-----------0--|
-------------------------|--------2--------0--------|-----0--------------2-----|
--4--5--6--7----9--7-----|--------------------------|--------------4h-5--------|
-------------------------|--------------------------|--------------------------|
----------------------0--|-----------5-----------5--|-----------0--------------|


                                                                              
-----2--3--5----7--5-----|--2--3--4--5----7--5-----|--5--7----9--9-----9-----|
-----3--5--7----9--7-----|--3--5--6--7----9--7-----|-----6-------------------|
--2----------------------|-------------------------|----------9--9-----9-----|
-----4--5--7----9--7-----|--4--5--6--7----9--7-----|----------------7--------|
-------------------------|-------------------------|----------0-----------7--|
----------------------0--|----------------------0--|


Atkins Chet Tabs & Chords



Atkins Chet Tabs, Tablatures, Chords, Lyrics

Buy Atkins Chet CD
Atkins Chet
Buy Atkins Chet CD

  1. Atkins Chet - Ave Maria Tabs
  2. Atkins Chet - Cascade Tabs
  3. Atkins Chet - Classical Gas Tabs
  4. Atkins Chet - Dizzy Fingers Chords
  5. Atkins Chet - Entertainer Tabs
  6. Atkins Chet - I Still Cant Say Goodbye Chords
  7. Atkins Chet - I'll Say She Does Tabs
  8. Atkins Chet - Imagine - Fingerstyle Tabs
  9. Atkins Chet - In The Mood - Fingerstyle Tabs
  10. Atkins Chet - La Madrugada Chords
  11. Atkins Chet - Mister Bojangles Chords
  12. Atkins Chet - Mr. Guitar Tabs
  13. Atkins Chet - Mr. Sandman(harp) Tabs
  14. Atkins Chet - Struttin Tabs
  15. Atkins Chet - Take Five Tabs
  16. Atkins Chet - There'll Be Some Changes Made Chords
  17. Atkins Chet - Vincent Chords
  18. Atkins Chet - Waltz For The Lonely Tabs
  19. Atkins Chet - Wilwood Flower - Fingerstyle Tabs
  20. Atkins Chet - Yankee Doodle Dixie Tabs



cowboylyrics.com
All lyrics are property and copyright of their owners. All lyrics provided for educational purposes only.