Chet Atkins, In The Mood - Fingerstyle Tabs, Chords, Lyrics

Chet Atkins, In The Mood - Fingerstyle Tabs, Chords

 SITE MENU
 Request Tabs
 Add/Correct Tabs
 DMCA Policy
 Country Sheet Music
0

BROWSE LYRICS AND TABS BY ARTIST/BAND NAME: SEARCH HERE:
A B C D E F G H I J K L M N O P Q R S T U V W X Y Z #
 

Chet Atkins - In The Mood - Fingerstyle (Tabs)


Chet Atkins CD
Chet Atkins Sheet music
Chet Atkins Posters
In The Mood
As recorded by Chet Atkins
Music by Garland


Gtr I - Acoustic Fingerstyle
Standard Tuning

  Q=141
 4/4
  Gtr I
                                       
  E E E H    E   E E E E Q  E E   Q  E E Q  Q    Q  E E Q  Q
|--------------|-------3-4----3-|-4----3-4-----|----4-4----4---|
|--------------|-------3s4--5-3s|=4--5-3s4--5--|----5-5----5---|
|--------------|-----4------6---|----6------6--|----6-6----6---|
|--------------|---6------------|--------------|----7-7----7---|
|------------6S|=7--------------|--------------|---------------|
|--------------|----------------|--------------|-5------5------|


                    PM  PM  PM    PM  PM  PM
  Q  H    Q     E E E E E E E E   E E E E Q  E E
|----7-------|------0-----0-----|-0-----0--------|
|----9-------|----0-----0-----0-|-----0--------0-|
|----8----0--|-h1-----1-----1---|---1-1------2---|
|----7-------|------2-------2---|-----2----------|
|------------|----------2-------|---------2------|
|-7----------|------------------|-0--------------|


   PM  PM  PM  PM    PM  PM   PM-----|   PM  PM  PM
   E E E E E E E E   E E E Q  Q  E   E E E E E E E E
|------0-----0-----|-0-----0-------|-----0-----0-----|
|----0-----0-----0-|-----0---------|---2-----2-----2-|
|-h1-----1-----1---|---1-----------|-2-----2-----2---|
|------2-------2---|-----2-------2-|-----2-------2---|
|----------2-------|----------2----|-0---------------|
|--0---------------|-0-------------|---------0-------|


  PM  PM   PM|      PM  PM  PM  PM    PM  PM   PM
  E E E Q  E E E    E E E E E E E E   E E E Q  Q  E
|-0-----0--------|------0-----0-----|-0-----0-------|
|-----2----------|----0-----0-----0-|-----0---------|
|---2----------0-|-h1-----1-----1---|---1---------2-|
|-----2------2---|------2-------2---|-----2---------|
|-0--------------|----------2-------|----------2----|
|----------0-----|--0---------------|-0-------------|


  PM  PM  PM  PM    PM       PM-----|    PM----|
  E E E E E E E E   E E E Q  Q  E   E Q  Q  Q  E
|-----------------|---------------|---0-----0----|
|-0---7-0---7-0---|-7-0---7-------|--------------|
|---8-----8-----8-|-----8---------|--------------|
|-----7-------7---|-----7-------7-|------2-----2-|
|---------9-------|----------9----|---------1----|
|-7---------------|-7-------------|-0------------|


      PM|    PM      PM  PM  PM  PM    PM
  E E E E E  Q  E    E E E E E E E E   E E E H    E
|-3-0---0---------|------0-----0-----|-0-----0------|
|---------2p-0----|----0-----0-----0-|-----0-0------|
|------------1--0-|-h1-----1-----1---|---1---2----0-|
|-----1------1----|------2-------2---|-----2-3------|
|-----------------|----------2-------|-------3------|
|-------2---------|--0---------------|-0-----1------|


  PM  PM  PM  PM    PM  PM         PM  PM  PM
  E E E E E E E E   E E E E H      E E E E E E E E
|-----0-----0-----|-0-----0------|-----0-----0-----|
|---0-----0-----0-|-----0---5----|---2-----2-----2-|
|-1-----1-----1---|---1-1---7----|-2-----2-----2---|
|-----2-------2---|-----2---6----|-----2-------2---|
|---------2-------|--------------|-0---------------|
|-0---------------|-0-------6----|---------0-------|


  PM  PM          PM  PM  PM  PM    PM  PM
  E E E H    E    E E E E E E E E   E E E E H
|-0-----0------|------0-----0-----|-0-----0-0----|
|-----2-2------|----0-----0-----0-|-----0---2----|
|---2---0----0-|-h1-----1-----1---|---1-1---0----|
|-----2-2------|------2-------2---|-----2---2----|
|-0-----0------|----------2-------|---------1----|
|--------------|--0---------------|-0------------|


  PM  PM  PM        PM  PM   PM-----|   PM----|
  E E E E E E E E   E E E Q  Q  E   E E Q  Q  Q
|-----2-----2-----|-2-----2-------|---0----0-----|
|---0-----0-----0-|-----0---------|--------------|
|-2-----2-----2---|---2-1---------|--------------|
|-1---1-------1---|-----1-------1-|-----2-----2--|
|-2---------------|-2-------------|--------1-----|
|---------2-------|----------2----|-0------------|


  PM  PM|    PM----|   PM  PM------|   PM  PM
  E E E Q  E Q     E E E E Q  Q    E E E E E Q  E
|-3-0---0--------|-0-----0-------|-----------7----|
|----------------|---2-----------|-----5---9------|
|----------2-0p--|---------------|---6---8--------|
|-----1------1---|-----2------5--|-----7--------7-|
|-2----------1---|---------------|-0--------------|
|-------2--------|-0-------6-----|---------7------|


  PM  PM   PM-----|   PM  PM   PM--|   PM   PM|
  E E E Q  E Q    E E E E E Q  E   E E E Q  E Q
|-0-----0-------|-----------7----|-0-----0-------|
|---2-----------|-----5---9------|---2-----------|
|---------------|---6---8--------|---------------|
|-----2------5--|-----7--------7-|-----2------2--|
|---------------|-0--------------|----------1----|
|-0--------6----|---------7------|-0-------------|


  PM  PM  PM   PM--|    PM|    PM
  E E E E E Q  E   Q  E E Q  E E   Q  E E H
|-------0---7----|-7------7------|-7-----------|
|-----2---9------|----5------6---|-7--8-7-5----|
|---2------------|---------------|-8--7-6-4----|
|-----2--------7-|------6------6-|-9--8-7-5----|
|-0--------------|---------------|-9--7-6-4----|
|---------7------|-0------7------|----8-7-5----|


  PM  PM   PM-----|   PM  PM  PM---|   PM  PM
  E E E Q  E Q    E E E E E E Q    E E E E Q  E E
|-0-----0-------|----------------|----------------|
|---2-----------|-5-----9---7----|-5-----5------5-|
|---------------|---6------------|---4--------5---|
|-----2------2--|-----7----------|-----6----------|
|----------1----|-0-----------7--|-7--------------|
|-0-------------|---------7------|---------6------|


  PM  PM|    PM---|   PM  PM  PM    PM  PM  PM   PM
  E E E Q  E Q    E E E E E E E E   E E E E E Q  E
|----------7----|-7-----6-------5-|----------------|
|---5---9-------|---5-------5-----|---5---9---7----|
|-6-------------|-----------------|----------------|
|-----7------7--|-----6-------5---|-----7--------7-|
|-0-------------|-----------------|-0--------------|
|-------7-------|-0-------6-------|---------7------|


  E E E E E E E E   Q  E E H        E Q   H       E    Q     Q   Q  Q
|-7-----7-7-----6-|-7-----------||-12---------------|------------------|
|---5-------6-----|-7--8-7-5----||------------------|------------------|
|-----6-------7---|-8--1-1-1----||----9--11b13----9-|-11b13--9------9--|
|-----------------|----8-7-5----||------------------|-----------11-----|
|-----------------|-------------||------------------|------------------|
|-----------------|-------------||------------------|------------------|


   E Q   H    E    E  Q  Q   E Q     E Q   H       E    Q     E  Q     Q   E
|---------------|-12-12-----------|-12---------------|-----------------------|
|---------------|-12-12-----------|------------------|-----------------------|
|-11-9--------9-|-12-12--9-----9--|----9--11b13----9-|-11b13--9-11b13--9-----|
|-------11------|-----------11----|------------------|--------------------h8-|
|---------------|-----------------|------------------|-----------------------|
|---------------|-----------------|------------------|-----------------------|


   E  E  E E E  E E E    Q  E E Q  Q
|---------------------|---------0--4--|
|-----------------8-9-|-10--8-9----0--|
|----------8-9-11-----|---------------|
|-h9-10-11------------|---------------|
|---------------------|---------------|
|---------------------|---------------|


  E E  E E  E E  E E    E E  E E  E E  E E
|-4----4----5----5----|-6----6----7----7----|
|-5-0p-5-0p-7-0p-7-0p-|-8-0p-8-0p-9-0p-9-0p-|
|---------------------|---------------------|
|---------------------|---------------------|
|---------------------|---------------------|
|---------------------|---------------------|


   E E E Q  E E E   E E Q  Q  Q    E E  E E  E E  E E    E E  E E  Q  E   E
|--9-7-7-3S=4-4-4-|--------------|-4-0p-4-0p-5----5----|-6----6----7--------|
|-10-9-9-4S=5-5-5-|-4S5-5--------|-5----5


Atkins Chet Tabs & Chords



Atkins Chet Tabs, Tablatures, Chords, Lyrics

Buy Atkins Chet CD
Atkins Chet
Buy Atkins Chet CD

  1. Atkins Chet - Ave Maria Tabs
  2. Atkins Chet - Cascade Tabs
  3. Atkins Chet - Classical Gas Tabs
  4. Atkins Chet - Dizzy Fingers Chords
  5. Atkins Chet - Entertainer Tabs
  6. Atkins Chet - I Still Cant Say Goodbye Chords
  7. Atkins Chet - I'll Say She Does Tabs
  8. Atkins Chet - Imagine - Fingerstyle Tabs
  9. Atkins Chet - In The Mood - Fingerstyle Tabs
  10. Atkins Chet - La Madrugada Chords
  11. Atkins Chet - Mister Bojangles Chords
  12. Atkins Chet - Mr. Guitar Tabs
  13. Atkins Chet - Mr. Sandman(harp) Tabs
  14. Atkins Chet - Struttin Tabs
  15. Atkins Chet - Take Five Tabs
  16. Atkins Chet - There'll Be Some Changes Made Chords
  17. Atkins Chet - Vincent Chords
  18. Atkins Chet - Waltz For The Lonely Tabs
  19. Atkins Chet - Wilwood Flower - Fingerstyle Tabs
  20. Atkins Chet - Yankee Doodle Dixie Tabs



cowboylyrics.com
All lyrics are property and copyright of their owners. All lyrics provided for educational purposes only.