, I Like That Shirt Tabs, Chords, Lyrics

, I Like That Shirt Tabs, Chords

 SITE MENU
 Request Tabs
 Add/Correct Tabs
 DMCA Policy
 Country Sheet Music
0

BROWSE LYRICS AND TABS BY ARTIST/BAND NAME: SEARCH HERE:
A B C D E F G H I J K L M N O P Q R S T U V W X Y Z #
 

- I Like That Shirt (Tabs)


CD
 Sheet music
Posters
I Like That Shirt
Bryan Potvin, Beverley Mahood and Rob Wells


Intro: (listen to the song for the rhythm)

------------------------------------------------------------------------------
------------------------------------------------------------------------------
------------------------------------------------------------------------------
--0--0-------2---------------------------0--0-------2-------------------------
---------3---3----------------2-----------------3---3----------------2--------
---------------------2--2--3--3-----------------------------2--2--3--3--------

Looks like you woke up ....bearing it all now

repeat
------------------------------------------------------------------------------
------------------------------------------------------------------------------
------------------------------------------------------------------------------
--0--0-------2---------------------------0--0-------2-------------------------
---------3---3----------------2-----------------3---3----------------2--------
---------------------2--2--3--3-----------------------------2--2--3--3--------

      I can see it in your eyes
-2-----------------3---2----0-2-------
-3------------------------------------
-2------------------------------------
--------------------------------------
--------------------------------------
--------------------------------------

Your clothes are  no        disguise
----------------------------2--2--2--2--2--2----
----------------------------3--3--3--3--3--3----
---------0-----------0------2--2--2--2--2--2----
-------2-----------0----------------------------
-----3------------------------------------------
-----------------3------------------------------

Chorus
G           C
I like that shirt
D                       G
And the way it hangs on you
                    em   D     C      G    C     D   
But does it come in   any other shade than moody blue
G                                     C        
Yeah I couldn't care less if you were wearing a dress
D                     G
I know I could fit on you
   em  D  C  G        D D
My love         looks     good on you

------------------------------------------------------------------------------
------------------------------------------------------------------------------
------------------------------------------------------------------------------
--0--0-------2---------------------------0--0-------2-------------------------
---------3---3----------------2-----------------3---3----------------2--------
---------------------2--2--3--3-----------------------------2--2--3--3--------



If it makes you feel...baby just ask

repeat:
------------------------------------------------------------------------------
------------------------------------------------------------------------------
------------------------------------------------------------------------------
--0--0-------2---------------------------0--0-------2-------------------------
---------3---3----------------2-----------------3---3----------------2--------
---------------------2--2--3--3-----------------------------2--2--3--3--------


Now give me a break                  It ain't that bad now
---------------------------------------------------------------------------
---------------------------------------------------------------------------
---------------------------------------------------------------------------
---------------------0--0-----2--------------------------------------------
--------------------------3---3---------------------------------2----------
----------------------------------------------------------3--3----3--------

It's never too late                 To understand how
---------------------------------------------------------------------------
---------------------------------------------------------------------------
---------------------------------------------------------------------------
---------------------0--0-----2--------------------------------------------
--------------------------3---3---------------------------------2----------
----------------------------------------------------------3--3----3--------


So just kick off..except my love


------------------------------------------------------------------------------
------------------------------------------------------------------------------
------------------------------------------------------------------------------
--0--0-------2---------------------------0--0-------2-------------------------
---------3---3----------------2-----------------3---3----------------2--------
---------------------2--2--3--3-----------------------------2--2--3--3--------


   I can see it in your eyes
-2---------------3--2----0-2-------
-3---------------------------------
-2---------------------------------
-----------------------------------
-----------------------------------
-----------------------------------

Your clothes are  no        disguise
----------------------------2--2--2--2--2--2----
----------------------------3--3--3--3--3--3----
---------0-----------0------2--2--2--2--2--2----
-------2-----------0----------------------------
-----3------------------------------------------
-----------------3------------------------------


Chorus

    I can see it in your eyes
-2----------------3--2----0-2------
-3---------------------------------
-2---------------------------------
-----------------------------------
-----------------------------------
-----------------------------------

Your clothes are no         disguise
----------------------------2---
----------------------------3---
---------0-----------0------2---
-------2-----------0------------
-----3--------------------------
-----------------3--------------
  
   What will it take to realize
-2----------------------3-2-0-2----
-3---------------------------------
-2---------------------------------
-----------------------------------
-----------------------------------
-----------------------------------

That I'm the     perfect    size
----------------------------2-2-3-2-2-3-2-2-3-2-2-2----
----------------------------3-3-3-3-3-3-3-3-3-3-3-3----
---------0-----------0------2-2-2-2-2-2-2-2-2-2-2-2----
-------2-----------0-----------------------------------
-----3-------------------------------------------------
-----------------3-------------------------------------

Chords:
G - 320003
D - x00232
c - 032010
em - 022000


Beverly Mahood Tabs & Chords



Beverly Mahood Tabs, Tablatures, Chords, Lyrics

Buy Beverly Mahood CD
Beverly Mahood
Buy Beverly Mahood CD

  1. Beverly Mahood - I Like That Shirt Tabs
  2. Beverly Mahood - The First Day (you Wake Up Alone) Chords



cowboylyrics.com
All lyrics are property and copyright of their owners. All lyrics provided for educational purposes only.