Wade Bowen, Man Out Of Myself Tabs, Chords, Lyrics

Wade Bowen, Man Out Of Myself Tabs, Chords

 SITE MENU
 Request Tabs
 Add/Correct Tabs
 DMCA Policy
 Country Sheet Music
0

BROWSE LYRICS AND TABS BY ARTIST/BAND NAME: SEARCH HERE:
A B C D E F G H I J K L M N O P Q R S T U V W X Y Z #
 

Wade Bowen - Man Out Of Myself (Tabs)


Wade Bowen CD
Wade Bowen Sheet music
Wade Bowen Posters
Intro:

h = hammer on

*You should listen to the song to get an idea for timing*  
I know I'm missing some in the picking but I think this is 
fairly close.

        Am7
E|------------------|
A|-0----------------|
D|---2------------2-|  Repeat 4 times
G|--------------2---|
B|----0-h-1---0-----|
e|----------3-------|


Verse:
         Am7		  Am7			C
E|------------------|------------------|-------------------|
A|-0----------------|-0----------------|-3-----------------|
D|---2--------------|---2--------------|---2-------------2-|
G|----------------2-|----------------2-|---------------0---|
B|----0-h-1---0-0---|----0-h-1---0-0---|-----0-h-1---0-----|
e|----------3-------|----------3-------|-----------0-------|

	C		  Am7	               Am7
E|-------------------|------------------|------------------|
A|-3-----------2-----|-0----------------|-0----------------|
D|---2-----------0---|---2--------------|---2--------------|
G|-----------------0-|----------------2-|----------------2-|
B|-----0-h-1---------|----0-h-1---0-0---|----0-h-1---0-0---|
e|-----------0-------|----------3-------|----------3-------|

       C                  G               Am7               
E|-------------------|-3-------------|------------------|
A|-3-----------------|---------------|-0----------------|
D|---2-------------2-|---0---------0-|---2--------------|
G|---------------0---|-----0-----0---|----------------2-|
B|-----0-h-1---0-----|-------0-------|----0-h-1---0-0---|
e|-----------0-------|---------3-----|----------3-------|

         Am7
E|------------------|
A|-0----------------|
D|---2--------------|
G|----------------2-|
B|----0-h-1---0-0---|
e|----------3-------|

(*If you prefer to strum during the verse I think it sounds better so sub Am for Am7*)


Bowen Wade Tabs & ChordsBowen Wade Lyrics



Bowen Wade Tabs, Tablatures, Chords, Lyrics

Buy Bowen Wade CD
Bowen Wade
Buy Bowen Wade CD

  1. Bowen Wade - A Battle Won Chords
  2. Bowen Wade - All Because Of A Woman Chords
  3. Bowen Wade - All That's Left Chords
  4. Bowen Wade - Beer Joints To The Opry Chords
  5. Bowen Wade - Before These Walls Were Blue Chords
  6. Bowen Wade - Before You Go Chords
  7. Bowen Wade - Bottle Into Gold Chords
  8. Bowen Wade - Broken Reflection Chords
  9. Bowen Wade - Crazy Enough Chords
  10. Bowen Wade - Daddy And The Devil Chords
  11. Bowen Wade - From Bad To Good Chords
  12. Bowen Wade - Getaway Chords
  13. Bowen Wade - Ghost In This Town Chords
  14. Bowen Wade - God Bless This Town Chords
  15. Bowen Wade - Good Time Tonight Chords
  16. Bowen Wade - Handle Chords
  17. Bowen Wade - I Wonder Chords
  18. Bowen Wade - If We Ever Make It Home Chords
  19. Bowen Wade - In My Soul Chords
  20. Bowen Wade - It's All Over Town Chords
  21. Bowen Wade - Just For Fun Chords
  22. Bowen Wade - Keep Hangin On Chords
  23. Bowen Wade - Lay It All On You Chords
  24. Bowen Wade - Lost Hotel Chords
  25. Bowen Wade - Lynville Train Chords
  26. Bowen Wade - Man Out Of Myself Chords
  27. Bowen Wade - Man Out Of Myself Tabs
  28. Bowen Wade - Matches Chords
  29. Bowen Wade - Missing You Chords
  30. Bowen Wade - Mood Ring Chords
  31. Bowen Wade - Mystery Of A Woman Chords
  32. Bowen Wade - Nobody's Fool Chords
  33. Bowen Wade - Not Finished Yet Chords
  34. Bowen Wade - On My Way To Wonderful Chords
  35. Bowen Wade - One Step Closer Chords
  36. Bowen Wade - Patch Of Bad Weather Chords
  37. Bowen Wade - Perfect Silence Chords
  38. Bowen Wade - Please Come To Boston Chords
  39. Bowen Wade - Prove It To You Chords
  40. Bowen Wade - Red Headed Woman Chords
  41. Bowen Wade - Resurrection Chords
  42. Bowen Wade - Saturday Night Chords
  43. Bowen Wade - Say Anything Chords
  44. Bowen Wade - Somewhere Beautiful Chords
  45. Bowen Wade - Songs About Trucks Chords
  46. Bowen Wade - Things I Could Do Chords
  47. Bowen Wade - Tired Of Being Alone Chords
  48. Bowen Wade - Tonight Chords
  49. Bowen Wade - Trouble Chords
  50. Bowen Wade - Try Not To Listen Chords
  51. Bowen Wade - Turn On The Lights Chords
  52. Bowen Wade - Walkin' Along the Fence Line Chords
  53. Bowen Wade - Walking Shoes Chords
  54. Bowen Wade - When I Woke Up Today Chords
  55. Bowen Wade - Who I Am Chords
  56. Bowen Wade - Why Cant You Love Me Chords
  57. Bowen Wade - Why Makes Perfect Sense Chords
  58. Bowen Wade - You Had Me At My Best Chords



cowboylyrics.com
All lyrics are property and copyright of their owners. All lyrics provided for educational purposes only.