, The Devil & Me Tabs, Chords, Lyrics

, The Devil & Me Tabs, Chords

 SITE MENU
 Request Tabs
 Add/Correct Tabs
 DMCA Policy
 Country Sheet Music
0

BROWSE LYRICS AND TABS BY ARTIST/BAND NAME: SEARCH HERE:
A B C D E F G H I J K L M N O P Q R S T U V W X Y Z #
 

- The Devil & Me (Tabs)


CD
 Sheet music
Posters
BR5-49:The Devil & Me

Pretty straight ahead. Great example of a western swing solo





E----------------------------------------------------------
B-----------------------3-3-6-3-5-6p5p3--------------------
G-------------2-3h4-3h4-----------------3h4---2------------
D---------2-5-------------------------------5---5----------
A-3-5-3-5-----------------------------------------5--------
E----------------------------------------------------------


E----------------------------------------------------------
B----------------------------------------------------------
G-----------------2-4-------------2h3h4---------------2----
D-------------2-5-----5-------2-5-------5-------1/2-5---2--
A-3-5-3-5-3-5-----------5-3-5-------------5-3-5------------
E----------------------------------------------------------


E---------------10-6---5-6-5---5-6-5-----------------------
B---3-5-6-3h5p3------5-------5-------5-3-5-3-----3-----3---
G-3------------------------------------------3/4---3/4-----
D----------------------------------------------------------
A----------------------------------------------------------
E----------------------------------------------------------


E----------------------------------------------------------
B-----3-------3---------------------------3---3--3---------
G-3/4---2-4-----0-3h4h5-0-0-4-0-5-0-6-0-7---6---5--4h5p0---
D-----------5----------------------------------------------
A----------------------------------------------------------
E----------------------------------------------------------


E-2/3------------------------------------------------------
B-----3-6-3------------------------------------------------
G-----------3b---------------------------------------------
D--------------5-------------------------------------------
A----------------------------------------------------------
E----------------------------------------------------------


BR-549 Tabs & Chords



BR-549 Tabs, Tablatures, Chords, Lyrics

Buy BR-549 CD
BR-549
Buy BR-549 CD

  1. BR-549 - After The Hurricane Chords
  2. BR-549 - Different Drum Chords
  3. BR-549 - Fool Of The Century Chords
  4. BR-549 - Honky Tonkin' Lifestyle Chords
  5. BR-549 - I Ain't Got Time Chords
  6. BR-549 - I'm All Right (for The Shape I'm In) Chords
  7. BR-549 - Little Ramona's Gone Hillbilly Nuts Chords
  8. BR-549 - Me And Opie Down By The Duckpond Chords
  9. BR-549 - Movin' To The Country Chords
  10. BR-549 - No Friend Of Mine Chords
  11. BR-549 - No Train To Memphis Chords
  12. BR-549 - One Long Saturday Night Chords
  13. BR-549 - Play That Fast Thing (one More Time) Chords
  14. BR-549 - Run A Mile Chords
  15. BR-549 - She's Talking To Someone (She's Not Talking To Me) Chords
  16. BR-549 - Tangled In The Pines Chords
  17. BR-549 - Tell Me Mama Chords
  18. BR-549 - That's What I Get Chords
  19. BR-549 - The Devil & Me Tabs
  20. BR-549 - The Price Of Love Chords
  21. BR-549 - Too Lazy To Work (too Nervous To Steal) Chords
  22. BR-549 - Way Too Late (too Go Home Early Now) Chords
  23. BR-549 - When I Come Home Chords
  24. BR-549 - When I Paint My Masterpiece Chords



cowboylyrics.com
All lyrics are property and copyright of their owners. All lyrics provided for educational purposes only.