Brent Mason, Blowin' Smoke (part 1) Tabs, Chords, Lyrics

Brent Mason, Blowin' Smoke (part 1) Tabs, Chords

 SITE MENU
 Request Tabs
 Add/Correct Tabs
 DMCA Policy
 Country Sheet Music
0

BROWSE LYRICS AND TABS BY ARTIST/BAND NAME: SEARCH HERE:
A B C D E F G H I J K L M N O P Q R S T U V W X Y Z #
 

Brent Mason - Blowin' Smoke (part 1) (Tabs)


Brent Mason CD
Brent Mason Sheet music
Brent Mason Posters
Brent Mason  -  Blowin' Smoke (PART 1) (tab)



This is the first part of the song....starting at the beginning and going up to [0:58] 
on the recording.

I'll have the next part tabbed and on the site soon!!

Where you see a FILL noted over the tab, look to the end of the tab for those fills.

Enjoy!


**************************************************************************************************

/   =   slide up                                                  ~   =   vibrato

br  =   bend & release                                            p   =   pulloff

h   =   hammer-on                                                 \   =   slide down

b   =   bend                                                      bh  =   bend & hold

r   =   release bend                                              

**************************************************************************************************


INTRO (w/ slight distortion)

Over the bends marked with a *, make sure to release the bend very quickly and as 
silently as possible before hammering on to the next note...


[0:00]
                                       *      *
E----------------------------------------------------------------------------------|
B--10/12~~--------------------------------------------15-15-15-15-15----15/17~~\---|
G---------14br-p12h14~p12\11----------------12b-h14bh-14-14-14-14-14r-12-----------|
D---------------------------14~~-----12b-h14---------------------------------------|
A-------------------------------12-14----------------------------------------------|
E----------------------------------------------------------------------------------|


MAIN THEME (pretty clean, but snappy)

                                                              (w/fill 1)
E------------------------------------------------------------------------------------------
B------------------------------------------------------------------------------------------
G----------------------------------2-2-2-2-2--------------------------------2p1------------
D---4p2-2---2-4p5-2---2-4p2-2------0-0-0-0-0--4p2-2---2-4p2-2-------2-0-0-2----2-0---------
A---5p2-2---2-5p5-2---2-5p2-2-0-4/5---4---4---5p2-2---2-5p2-2--0-1-2---2---2------2-0---0--
E--0---0-3-4-0---0-3-4-0---0-4---------------0---0-3-4-0---0-4-----------------------3-4---


                                                              (w/fill 2)
E---------------------------------------------------------------------------------------
B---------------------------------------------------------------------------------------
G----------------------------------2-2-2-2-2--------------------------------------------
D---4p2-2---2-4p2-2---2-4p2-2------0-0-0-0-0--4p2-2---2-4p2-2-------2-0-0-2-------------
A---5p2-2---2-5p2-2---2-5p2-2-0-4/5---4---4---5p2-2---2-5p2-2--0-1-2---2---2-1-0-2------
E--0---0-3-4-0---0-3-4-0---0-4---------------0---0-3-4-0---0-4--------------------3b-0--

                 

E----------------------------------------------------------------------3-----------------
B-----------1/2--------------------------3--3----------1/2-------------3b-1b-------------
G---2p0-0h2-1/2-6\4p2-4-2-2--2p0-0h2-----0--2--2p0-0h2-1/2-6\4p2-4-2-2------2p0----------
D---2p0-0h2--------------4---2p0-0h2-----0--0--2p0-0h2--------------4--------------------
A--0---0---0----------------0---0-------------0---0---0---------------0--------0-5b-3~~--
E-----------------------------------0-2-3--2---------------------------------------------



E--------------------------------------------------------------------5--6--7-8--9-10\--
B-----------1/2-------------------------3--3----------1/2------------4--5--6-7--8-9-\--
G---2p0-0h2-1/2-6\4p2-4-2-2-2p0-0h2-----0--2--2p0-0h2-1/2-6\4p2-4-2--2--3--4-5--6-7-\--
D---2p0-0h2--------------4--2p0-0h2-----0--0--2p0-0h2----------------4--5--6-7--8-9-\--
A--0---0---0---------------0---0-------------0---0---0--------------2--3--4--5-6--7-\--
E----------------------------------0-2-3--2--------------------------------------------


                                                                                        [0:58]
E-------------------------------------------------------------------------------------------|
B-------------------------------------------------------------------------------------------|
G----------------------------------2-2-2-2-2--------------------------------2p1-------------|
D---4p2-2---2-4p5-2---2-4p2-2------0-0-0-0-0--4p2-2---2-4p2-2-------2-0-0-2----2-0----------|
A---5p2-2---2-5p5-2---2-5p2-2-0-4/5---4---4---5p2-2---2-5p2-2--0-1-2---2---2------2-0---0---|
E--0---0-3-4-0---0-3-4-0---0-4---------------0---0-3-4-0---0-4-----------------------3-4----|


** FILLS **
                                                

FILL 1

E-------0---0-5p4-0------------|
B--------3-3-0-----3-----------|
G--2-3/4--4---------4-2-0-1-2--|
D------------------------------|
A------------------------------|
E------------------------------|


FILL 2

E------0---0---------------|
B-------3-3----------------|
G-2-3/4--4---4-3p2-4-------|
D-------------------5b-2---|
A--------------------------|
E--------------------------|


Brent Mason Tabs & Chords



Brent Mason Tabs, Tablatures, Chords, Lyrics

Buy Brent Mason CD
Brent Mason
Buy Brent Mason CD

  1. Brent Mason - Blowin' Smoke (part 1) Tabs
  2. Brent Mason - Blowin' Smoke (part 2) Tabs
  3. Brent Mason - Blue Water Girl (part 1) Tabs
  4. Brent Mason - Blue Water Girl (part 2) Tabs
  5. Brent Mason - Don't Try This At Home Tabs
  6. Brent Mason - First Rule Of Thumb Tabs
  7. Brent Mason - Gator Bite (Part 2) Tabs
  8. Brent Mason - Gator Bite (part 1) Tabs
  9. Brent Mason - Hot Wired (part 1) Tabs
  10. Brent Mason - Hot Wired (part 2) Tabs
  11. Brent Mason - Swing With A Sting (part 1) Tabs
  12. Brent Mason - Swing With A Sting (part 2) Tabs



cowboylyrics.com
All lyrics are property and copyright of their owners. All lyrics provided for educational purposes only.