Brent Mason, Don't Try This At Home Tabs, Chords, Lyrics

Brent Mason, Don't Try This At Home Tabs, Chords

 SITE MENU
 Request Tabs
 Add/Correct Tabs
 DMCA Policy
 Country Sheet Music
0

BROWSE LYRICS AND TABS BY ARTIST/BAND NAME: SEARCH HERE:
A B C D E F G H I J K L M N O P Q R S T U V W X Y Z #
 

Brent Mason - Don't Try This At Home (Tabs)


Brent Mason CD
Brent Mason Sheet music
Brent Mason Posters
"Don't Try This At Home"


Brent Mason.) I transcribed the main themes and the guitar solo of this fast blues jam. 
Mason plays single notes over the turnaround chords but I suggest you play the whole chord 
(unless you have a Hammond B-3 player hangin around.) 

\   -slide down
/   -slide up
b   -bend
pb  -prebend
h   -hammer
p   -pulloff
bh  -bend and hold
r   -relax bend
1   -whole step bend
1/2 -half step bend 


 (lower strings muted)    
____E_________________________________________________________________________________________

e---------------------------------------------------------------------------------------------
B------------3--3--------3-----2--2--------2------3--3--------3------2--2---------2-----------
G------------1--1--------1-----2--2--------2------4--4--------4------2--2---------2-----------
D---------------------------------------------------------------------------------------------
A---------------------2-----4-----------4------5-----------5------4-----------4---------------
E---9\---0---------0-----------------0------------------0------------------0------------------




_____E_______________________________________________________________________________________

e-------------------------------------------------------------------------------------------
B-----------3--3--------3-----2--2--------2------3--3--------3------2--2---------2----------
G-----------1--1--------1-----2--2--------2------4--4--------4------2--2---------2----------
D-------------------------------------------------------------------------------------------
A---------2-----------2-----4-----------4------5-----------5------4-----------4-------------
E------------------0-----------------0------------------0------------------0----------------




play twice:
____E______________________________________________________________________________________

e---4--0----4----0--4--0----0--------------4--0-----4-----0--4--0-----0------------------
B---5--0----5----0--5--0----0--8--0--7--0--5--0-----5-----0--5--0-----0------------------
G--------7-----7---------7-----------------------7-----7-----------7-----3p2p0-----------
D-------------------------------------------------------------------------------2p0------
A----------------------------------------------------------------------------------------
E----------------------------------------------------------------------------------------




then:
___A__________________________________________________________________________________________

e--9---0-----9------0---9----0-----0--8--0--7--0--9---0-----9------0--9---0----0--------------
B--10--0-----10-----0---10---0-----0--------------10--0-----10-----0--10--0----0--------------
G---------12-----12-------------12-----------------------12-----12----------12----8\7p5-------
D---------------------------------------------------------------------------------------7-----
A---------------------------------------------------------------------------------------------
E---------------------------------------------------------------------------------------------




____E__________________________________________________________________________________________

e---4--0----4-----0--4--0-----0--------------4--0-----4-----0------4-----4---------------------
B---5--0----5-----0--5--0-----0--8--0--7--0--5--0-----5-----0------5-----5---------------------
G--------7-----7-----------7-----------------------7-----7-----7------7------------------------
D---------------------------------------------------------------------------------------------
A----------------------------------------------------------------------------------------------
E---------------------------------------------------------------------------------------------





___G13____F#13_______________________________C9_____B9_________________________________1/2_______

e----------------------0--3p2p0--2----0--2----------------------3--6p5p3--5----3--5----3b------
B---(5)-----(4)---0h2---------------2-------(3)----(2)-----3h5---------------5-------5---------
G----4-------3-------------------------------3------2------------------------------------------
D---(3)-----(2)-----------------------------(2)----(1)-----------------------------------------
A-------------------------------------------(3)----(2)-----------------------------------------
E---(3)-----(2)--------------------------------------------------------------------------------



____E9#______C#9#____C#9#_____F#13____F#13______B9#_____________________

e-----------------------------------------------------------------------
B----8---------5-------5--------4-------4-------3-----------------------
G---(7)-------(4)-----(4)------(3)-----(3)-----(2)----------------------
D---(6)-------(3)-----(3)------(2)-----(2)-----(1)----------------------
A---(7)-------(4)-----(4)----------------------(2)----------------------
E------------------------------(2)-----(2)------------------------------




SOLO:

_E__1__________1____________________1/2_____________________________________________________________

e--10b--10r-7-----7-----------------------------------------------------------------------------
B--10b--------10b---pb10r-8---10-8---8b------9--9-----7--------------------------------------------
G---------------------------9------9-----9-7-9--9p7---7--------------------------------------------
D---------------------------------------------------9---8-8\7-5---5h6---------------------2-0------
A---------------------------------------------------------------7-----7-5-------------2-4-----2----
E-------------------------------------------------------------------------7-6-5-0-3h4--------------




_E_________________A_________________________________________________________let_chord_ring_______

e--------------------------------------------------------------------------------------------------
B-----------------------------2p0---0----3-----5--7--8--10--12-------12-------------14--14---------
G--2---0h1--------------------2p0---0----4-0---6--7--9--11--12-------12------12---12--12-----------
D----2-----2--------------2-4-----4--4/5-----7-----------------10/11-----/14---14------------------
A------------------0--3h4--------------------------------------------------------------------------
E------------0-3/4---------------------------------------------------------------------------------





_A_______________________________________________F#7____________________B7____________________

e------------------10-----------------------------------------0---0--0---0--0--0-------------
B---------------12b--12r-10-------------------------------8/9--10--11--12-10-8--8h9----------
G-12-------12---------------12p11-9----9----------------9------------------------------------
D----14-14--------------------------12---11-10p9-7/8-11--------------------------------------
A--------------------------------------------------------------------------------------------
E---------------------------------------------------------------------------------------------





____E___________________________________________________________________________________________

e-----------------------------------------------------------5-3h4-0----------------------------
B-----------------------------------------------------0-3-0---------3-0------------------------
G---9-7-----------------------------------------0-2h3-------------------3p2-0-2-0h1------------
D------9-8p7--5h6---------------------2p0---0-2-------------------------------------2-0--------
A-----------9-----7-5-------------2-4-----4----------------------------------------------------
E---------------------7-6p5-0-3h4--------------------------------------------------------------




___E_____________________________________________________________________________________________

e------------------------------------------------------------------------------------------------
B----0-----0---2-2----2---3-3----3---5-5----5---7-7----7----9-9-----9----10-10------10-----------
G----1-----1---2-2----2---4-4----4---6-6----6---7-7----7----9-9-----9----11-11------11-----------
D------------------------------------------------------------------------------------------------
A--------2---4------4---5------5---7------7---9------9---11------11---12---------12--------------
E--0---0----------0----------0----------0----------0-----------0---------------0-----------------



____________A___1________________________________________________________________

e-----------------14-12---------------------------------------------------------
B-----12-12---12b-------12r-10----10\8-----------------------------2-----2p0----
G-----13-13--------------------11------9-8-7---5h6-----------------2-----2p0----
D--------------------------------------------9-5---7-6p5-----0------------------
A--14----------------------------------------------------7-6---3h4---3h4--------
E-------------------------------------------------------------------------------




__E_____1/2________________________________C#9#_____________F#13______________________________

e--------3b-0----------------------------------------------5/6---4----------------------------
B----3h5------3-0--------------------------------------4h5-----7---6-5-4----------------------
G--/4-------------3p2p0---2---0--------------------3h4-------------------7-6p5-4-2h3----------
D-----------------------2---2---2-0---0-2--2/3-5h6-----------------------------------4-2------
A-----------------------------------2----------------------------------------------------4----
E---------------------------------------------------------------------------------------------





___B9______________1/2__1/2_etc.__E___________________________________

e----------------7-----7---7---7---7---7---7---7---7------------------
B------------------10b--8b--10b-8b--10b-8b--10b-8b--8b----------------
G----------4-6/8---------------------------------------9-7------------
D------4-6-------------------------------------------------9-7--------
A--4/6---------------------------------------------------------10-7---
E---------------------------------------------------------------------



































Brent Mason Tabs & Chords



Brent Mason Tabs, Tablatures, Chords, Lyrics

Buy Brent Mason CD
Brent Mason
Buy Brent Mason CD

  1. Brent Mason - Blowin' Smoke (part 1) Tabs
  2. Brent Mason - Blowin' Smoke (part 2) Tabs
  3. Brent Mason - Blue Water Girl (part 1) Tabs
  4. Brent Mason - Blue Water Girl (part 2) Tabs
  5. Brent Mason - Don't Try This At Home Tabs
  6. Brent Mason - First Rule Of Thumb Tabs
  7. Brent Mason - Gator Bite (Part 2) Tabs
  8. Brent Mason - Gator Bite (part 1) Tabs
  9. Brent Mason - Hot Wired (part 1) Tabs
  10. Brent Mason - Hot Wired (part 2) Tabs
  11. Brent Mason - Swing With A Sting (part 1) Tabs
  12. Brent Mason - Swing With A Sting (part 2) Tabs



cowboylyrics.com
All lyrics are property and copyright of their owners. All lyrics provided for educational purposes only.