Brent Mason, Hot Wired (part 1) Tabs, Chords, Lyrics

Brent Mason, Hot Wired (part 1) Tabs, Chords

 SITE MENU
 Request Tabs
 Add/Correct Tabs
 DMCA Policy
 Country Sheet Music
0

BROWSE LYRICS AND TABS BY ARTIST/BAND NAME: SEARCH HERE:
A B C D E F G H I J K L M N O P Q R S T U V W X Y Z #
 

Brent Mason - Hot Wired (part 1) (Tabs)


Brent Mason CD
Brent Mason Sheet music
Brent Mason Posters
Brent Mason - Hot Wired (part 1)


Play with capo on 1st fret, or tune guitar up to FBbEbAbCF.

All notes are relative to position of capo.

I've tabbed the song in sections so that its easier to follow.

When you see a passage with : at the start and end, repeat this passage
once, then carry on through the tab.

I have tabbed this part up to the piano solo (about 1min into song)


GOOD LUCK GUYS!!!

***********************************************************************

b   =   bend                                p   =   pulloff

/   =   slide up                            h   =   hammer-on

bh  =   bend & hold                         r   =   release bend

~   =   vibrato                             br  =   bend & release

\   =   slide down                          pbr =   pre-bend & release

***********************************************************************



E-------------------------------------------------------------------
B-----------------------------------1-0-----------------------------
G-------2p0-5p0-7p0-6p0-5---2p0-5p0-0-0----0----2p0-5p0-7p0-5p0-4---
D-------2p0-5p0-7p0-5p0-4---2p0-5p0--------0----2p0-5p0-7p0-6p0-5---
A------0---0---0---0---0---0---0--------5/7-3b-0---0---0---0---0----
E--0-3b----------------------------3-3------------------------------


E-------------------|
B-----------3--3----|
G---2p0-5p0-0--2----|
D---2p0-5p0-0--0----|
A--0---0------------|
E----------3--------|



E:-5p3p0---------0-----------------------------------------------------
B:------4p3-2h3h4-1h2--------------------------------------------------
G:---------5---------2p0-2p0-0-----------0---------2p0-2p0-2-2---------
D:----------------------2---2-2p1-0---2h4-4p2p0----2p0-2p0-2-2---------
A:-------------------------------3-3/4---------3b-0---0---0---------0--
E:--------------------------------------------------------------0-3b---

1st ending            2nd ending

E---------------:     -----------------|
B---------------:     -----------------|
G--2p0-2p0-5b---:     ---2p0--4bh-4r---|
D--2p0-2p0-5b---:     ---2p0--7---7----|
A-----0---0-----:     --0---0----------|
E---------------:     -----------------|



E:------------------------:---------------------------------------
B:------------------------:---2p0-0-------------------------------
G:---------------0-0------:---2p0-0-----------------2p0-2p0-2-2---
D:---0---2p0--0-4-4-4p2-0-:------4-4p2-0---2--------2p0-2p0-2-2---
A:--3-3/5---3b------------:--4--------4-3h4-3p2p0--0---0---0------
E:-2----------------------:----------------------3b---------------


E----------------------------------------|
B----------------------------------------|
G---2---2---2---2---2----4---4---4---4---|
D---1p0-1p0-1p0-1p0-1----3p0-3p0-3p0-3---|
A----------------------------------------|
E--1---1---1---1---1--1/3---3---3---3----|



E--5p3p0---------0----------------------------------
B-------4p3-2h3h4-1h2-------------------------------
G----------5---------2p0-2p0-0-----------0----------
D-----------------------2---2-2p1-0---2h4-4p2p0-----
A--------------------------------4-4/5---------3p2--
E---------------------------------------------------


E----------------------------------------------------------------|
B-------------------------------1-0------------------------------|
G---2p0-5p0-7p0-6p0-5---2p0-5p0-0-0----0----2p0-5p0-7p0-5p0-4----|
D---2p0-5p0-7p0-5p0-4---2p0-5p0--------0----2p0-5p0-7p0-6p0-5----|
A--0---0---0---0---0---0---0--------5/7-3b-0---0---0---0---0--0--|
E------------------------------3-3-------------------------------|


E------------------------0-0----2------------------
B---------------------1-2--------------------------
G--------------1-2-3-4-----4bh~~--4r-2-4br-2~~~/14-
D-------1-2-3-4---------------------------4--------
A--0-4-5-------------------------------------------
E--------------------------------------------------


E------14--12----------------------------------------------
B--12bh--12--12r-10--10\8-7--------------------------------
G------------------11----9-9-8-7-5h6---------------2p0-2---
D-----------------------------------7-5---------2-4---4-4--
A--------------------------------------7-6\5-3h4-----------
E----------------------------------------------------------


E--------------------------2-2---2---2-2---2-------------
B--1---1---1---1---1---1---1-1---1---1-1---1-----5----3--
G--2p0-2p0-2p0-2p0-2p0-2p0--2-0h2-0h2-2-0h2------6----4--
D---------4---4-------4---0-------------------5/7--5-5---
A--------------------------------------------------------
E--------------------------------------------------------


E-----------------------5---9----12----13-11---------------------------
B---2p0-------------------------------------13pbr-11-------------------
G---2p0--0---0------2-4b--7b--11b---12b-------------13p12p10--10\8--8\-
D--2---2-1-0-0---2-4----------------------------------------12----10---
A-----------3-3h4------------------------------------------------------
E----------------------------------------------------------------------


E-----7--5-3------------5---------------------------------------|
B-----8--6-3-5-3--------5------7-5------------------------------|
G------------5-3h4--------8-7--7-5h6-6--4-2-2-2-0---------------|
D--7/9--7---5-5---5--5/7--7-7-7-7----7--5-4-2-1-0---2-----------|
A--------------------5/7-9-9--------0--0-0-0-0-0-3h4-3p2p0------|
E---------------------------------------------------------3\2---|


START OF PIANO SOLO



Brent Mason Tabs & Chords



Brent Mason Tabs, Tablatures, Chords, Lyrics

Buy Brent Mason CD
Brent Mason
Buy Brent Mason CD

  1. Brent Mason - Blowin' Smoke (part 1) Tabs
  2. Brent Mason - Blowin' Smoke (part 2) Tabs
  3. Brent Mason - Blue Water Girl (part 1) Tabs
  4. Brent Mason - Blue Water Girl (part 2) Tabs
  5. Brent Mason - Don't Try This At Home Tabs
  6. Brent Mason - First Rule Of Thumb Tabs
  7. Brent Mason - Gator Bite (Part 2) Tabs
  8. Brent Mason - Gator Bite (part 1) Tabs
  9. Brent Mason - Hot Wired (part 1) Tabs
  10. Brent Mason - Hot Wired (part 2) Tabs
  11. Brent Mason - Swing With A Sting (part 1) Tabs
  12. Brent Mason - Swing With A Sting (part 2) Tabs



cowboylyrics.com
All lyrics are property and copyright of their owners. All lyrics provided for educational purposes only.