, Swing With A Sting (part 2) Tabs, Chords, Lyrics

, Swing With A Sting (part 2) Tabs, Chords

 SITE MENU
 Request Tabs
 Add/Correct Tabs
 DMCA Policy
 Country Sheet Music
0

BROWSE LYRICS AND TABS BY ARTIST/BAND NAME: SEARCH HERE:
A B C D E F G H I J K L M N O P Q R S T U V W X Y Z #
 

- Swing With A Sting (part 2) (Tabs)


CD
 Sheet music
Posters
Brent Mason  -  Swing With A Sting, PART 2 (lead)



This is the 'solo' part of the song, starting at [0:40] and ending at around [1:22].
After this section is a long part which is piano and steel guitar solo, so I won't
be tabbing any of that.

Part 3 will follow shortly....


********************************************************************************************

x   =   dead note                                              b   =   bend

/   =   slide up                                               \   =   slide down

p   =   pulloff                                                h   =   hammer-on

b   =   bend

********************************************************************************************



   rake
E-------------------------------------------3---3---------------------------
B----------------------3--------3--------2/3-2/3--------------3\--6-6-5-5-8-
G----3b--0---3------3-5------3-5------3-5--------6\5-3-5-3-3/4--------------
D---x-----0-5--0-3-5----0-3-5----0-3-5----------------5---5-----------------
A--x------------------------------------------------------------------------
E---------------------------------------------------------------------------


E--6/7-6/7-5/6--6p5p3-3-6/7\-----3-6p5p3-5-3-5-8/10-8-10p8\7---------6/7------
B-----5---5----------5--------3-5---------5-----------------8-------8---8-7-6-
G------------------------------------------------------------9-8-7-9----------
D-----------------------------------------------------------------------------
A-----------------------------------------------------------------------------
E-----------------------------------------------------------------------------

             rake                                                     rake 
E--5-0-6-3-4-5--------------------------------------------------------------
B-------------5---------------1-2-3-2/3-2/3-2/3--2/3---------------1-----0--
G--------------5p3---------0-3----------------------5-3/4-0-3/4-0-4-1---0---
D-----------------6\5-3\2-4--------0---0---0---0-0-------------------3-1--0-
A---------------------------------------------------3-1/2-------------------
E---------------------------------------------------------3-----------------

                             
E--------0--3-8-6h7--------------------------------------------------------------
B--------1-5-------8------8\--8/10-8-7--7/8--------5-8-7-8-7-5-----5-------------
G---0h4-0-----------7-5--------------------9------6-----------7-4-6-7---5-4-0----
D--2---0---------------8/9--------9---------11-9-8-------------------5-7-----2-0-
A--------------------------------------------------------------------------------
E--------------------------------------------------------------------------------


E------------------2/3-0-6/7-7/8-8/10-8-10-6h7-----------------------12----------------
B------------4/5-2----------------------------8----------------12-15b--15-14-13-----12-
G----0-3/4-0-----------------------------------7---------12-14b----------------14-15---
D---2-------------------------------------------10--12-14------------------------------
A--4----------------------------------------------14-----------------------------------
E--------------------------------------------------------------------------------------

                                                                 rake
E----------------------------------13-12-10-9----------------5----------------------------|
B-------------------8-10-11/12-10-9-----------9-12-10-8-5-6-7--5----5-8-7-6-5-4-3---------|
G--12------------7-9-------------------------9-------9-7------5----7--------------5-3h4---|
D----12-11-10-8/9-----------------------------------------------7-9----5-4-3-2-1-0-----5--|
A-----------------------------------------------------------------------------------------|
E-----------------------------------------------------------------------------------------|




Brent Mason Tabs & Chords



Brent Mason Tabs, Tablatures, Chords, Lyrics

Buy Brent Mason CD
Brent Mason
Buy Brent Mason CD

  1. Brent Mason - Blowin' Smoke (part 1) Tabs
  2. Brent Mason - Blowin' Smoke (part 2) Tabs
  3. Brent Mason - Blue Water Girl (part 1) Tabs
  4. Brent Mason - Blue Water Girl (part 2) Tabs
  5. Brent Mason - Don't Try This At Home Tabs
  6. Brent Mason - First Rule Of Thumb Tabs
  7. Brent Mason - Gator Bite (Part 2) Tabs
  8. Brent Mason - Gator Bite (part 1) Tabs
  9. Brent Mason - Hot Wired (part 1) Tabs
  10. Brent Mason - Hot Wired (part 2) Tabs
  11. Brent Mason - Swing With A Sting (part 1) Tabs
  12. Brent Mason - Swing With A Sting (part 2) Tabs



cowboylyrics.com
All lyrics are property and copyright of their owners. All lyrics provided for educational purposes only.