Richard Buckner, Ocean Cliff Clearing Tabs, Chords, Lyrics

Richard Buckner, Ocean Cliff Clearing Tabs, Chords

 SITE MENU
 Request Tabs
 Add/Correct Tabs
 DMCA Policy
 Country Sheet Music
0

BROWSE LYRICS AND TABS BY ARTIST/BAND NAME: SEARCH HERE:
A B C D E F G H I J K L M N O P Q R S T U V W X Y Z #
 

Richard Buckner - Ocean Cliff Clearing (Chords)


Richard Buckner CD
Richard Buckner Sheet music
Richard Buckner Posters
  E- 3 3 3 3 
  A-   0    1    0    1 
D- 0 0 0 0 
G- 0 2 2 2 
B- 2 3 2 0 
E- 3 x x x 

  C G C G 
E|--33-3-333---33-3-333---3---3-333---3---3-333---
B|--11-0-000---11-0-000---0h1-1-000---0h1-1-000---
G|--00-0-000---00-0-000---0---0-000---0---0-000---
D|--22-2-222---00-0-000---2---2-222---0---0-000---
A|--33-3-333---22-2-222---3---2-222---2---2-222---
E|-------------33-3-333---------------3---3-333---



  Em C G 
 ---33-3-333---3-33---33-3-333-------------------|
 ---00-1-100---1-11---00-0-000-------------------|
 ---00-0-000---0-00---00-0-000-------------------|
 ---22-2-222---2-22---00-0-000-------------------|
 ---22-2-222---3-33---22-2-222-------------------|
 ---------------------33-3-333-------------------|



  G C G 
  Ten years now since the  lights went  down 
  Em C G 
  I was coming out from the s ecret s uite 
  G C G 
  The name was fame but her  spark was  fine 
  Em C G 
  Her shadow left to f ollow m e 

  G C G 
E|-----3--------3--------3----3----
B|-------0--------0--------1--0----
G|---------------------0------0----
D|---0--------0---------------0----
A|-------------------3--------2----
E|-3--------3-----------------3----



  Em C G 
 ------3--------3--------3----3---|
 --------0--------0--------1--0---|
 ----0--------0--------0------0---|
 -----------------------------0---|
 --2--------2--------3--------2---|
 -----------------------------3---|



  G C G 
  From the poor oil changer that  fades  away 
  Em C G 
  A message from a diamond and she's  smoking  hot 
  G C G 
  He thought he had a handle but the  load went  down 
  Em C G 
  Busted up found and  broken  out 

  Am7 C G 
  In the dim  chalky light   

  Em C G 
Another half damn mo on         

  G C G 
E|------3--------3--------3----3----
B|--------0--------0--------1--0----
G|*---------------------0------0----
D|*---0--------0---------------0----
A|--------------------3--------2----
E|--3--------3-----------------3----



  Em C G 
  ------3--------3--------3----3---|
  --------0--------0--------1--0---|
  ----0--------0--------0------0--*|
  -----------------------------0--*|
  --2--------2--------3--------2---|
  -----------------------------3---|



  Am7 C G 
  I lost, turned, packed, and  I knock into a roller   
  Em C G 
With a note and the  news       

Low E: 
 
E|--3-3-3-3-3-3-3--|



  G C G 
  The showboat motel  casper  night 
  Em C G 
  The river's high and  los ing 
  G C G 
  I'll watch your flaming  figure  fly 
  Em C G 
  And burn on out at the  ruin s 

  Am7 C G 
  This fellow belts  out a warning    
  Em C G 
Of some spanish house I'd  known       

  Am7 C G 
  Cut to  bone    
  Em C G 
Quick to the  cue        

  Em C G 


Buckner Richard Tabs & ChordsBuckner Richard Lyrics



Buckner Richard Tabs, Tablatures, Chords, Lyrics

Buy Buckner Richard CD
Buckner Richard
Buy Buckner Richard CD

  1. Buckner Richard - Invitation Chords
  2. Buckner Richard - Mile Chords
  3. Buckner Richard - Ocean Cliff Clearing Chords
  4. Buckner Richard - Once Chords
  5. Buckner Richard - Surprise Az Chords



cowboylyrics.com
All lyrics are property and copyright of their owners. All lyrics provided for educational purposes only.