Grayson Capps, Washboard Lisa Tabs, Chords, Lyrics

Grayson Capps, Washboard Lisa Tabs, Chords

 SITE MENU
 Request Tabs
 Add/Correct Tabs
 DMCA Policy
 Country Sheet Music
0

BROWSE LYRICS AND TABS BY ARTIST/BAND NAME: SEARCH HERE:
A B C D E F G H I J K L M N O P Q R S T U V W X Y Z #
 

Grayson Capps - Washboard Lisa (Chords)


Grayson Capps CD
Grayson Capps Sheet music
Grayson Capps Posters
INTRO

(1)   C           G	         Dm                         F            G

e|--3-----------3------------|-1p0--------------1-----|---------1-------------|
B|---------------------------|-------3------------3---|-(1)-------1---0--1--3-|
G|----0---0-------0----------|-----2----0-0h2-2-------|--2--0h2---------------|
D|------2-------------0------|-0----------0-----------|--3--------------------|
A|--3---------------2--------|------------------------|-----------------------|
E|--------------3------------|------------------------|---------------3-------|

   C

e|------3-0---------|
B|----1-----3-------|
G|---0--------0-0---|
D|--2----------0----|
A|-3----------------|
E|------------------|


(2)    C           G	         Dm                         F            G

e|--3-----------3------------|-1p0--------------1-----|---------1-------------|
B|---------------------------|-------3------------3---|-(1)-------1---0--1--3-|
G|----0---0-------0----------|-----2----0-0h2-2-------|--2--0h2---------------|
D|------2-------------0------|-0----------0-----------|--3--------------------|
A|--3---------------2--------|------------------------|-----------------------|
E|--------------3------------|------------------------|---------------3-------|

   C

e|------3-0-------0---|
B|----1-----3------1--|
G|---0----------------|
D|--2---------0h2-----|
A|-3------------------|
E|--------------------|


VERSE: (2)

  C          G           Dm
Standin' on the corner of Royal Street,
     F     G     C
on a Sunday afternoon
 C        G	       Dm
Out there by the old A & P
 F              G      C
barefoot in the sun in June.
  C        G
I saw her playin' with the
   Dm               F         G        C
big brass band with old Gate Junior on guitar
   C       G            Dm
I saw her playin' with John and Mooney too
 F        G         C
uptown at Maddigan's Bar.


CHORUS:

  F       G             C      F
Washboard Lisa, wash away your sins
        C            G
let them go down the drain
  F          G          C            F
Everytime you move your dirty little hands
     C          G             C
takes away our fears and our pain

( INTRO )


  C          G             Dm
I said "hello" to her out there on the street
  F        G           C
Boys, I looked into here eyes
   C             G       Dm
She said that she knew Tom Robin
  F         G          C
Oh, I believed it was a lie
   C           G        Dm
But how can New Orleans be so good
     F      G        C
To a Lucky Strike smoking queen
       C           G        Dm
With a rip in her dress and a dirty toes
 F        G        C
Livin’ life like a dream


CHORUS:

  F       G             C       F
Washboard Lisa, wash away your sins
        C            G
let them go down the drain
  F          G          C            F
Everytime you move your dirty little hands
     C          G             C
takes away our fears and our pain

(INTRO) 2x


Outro:

    F           G	         C            F             C

e|------1--------------------|--3-0---------1---------|--------0------0------|
B|-----1-1------0--1—3-------|-1----3-1-------1-------|----------1------1----|
G|----2----------------------|-0----------2-----------|------0---------------|
D|---3-----------------------|-2--------3-------------|----2-----------------|
A|---------------------------|-3----------------------|--3----------3--------|
E|--------------3------------|------------------------|----------------------|

   G

e|-----3--------------|
B|-------0---1-3------|
G|---0-----------0----|
D|--------------------|
A|--------------------|
E|-3-------3----------|

    F           G	         C            F             C

e|------1--------------------|--3-0---------1---------|--------0-----------|
B|-----1-1------0--1—3-------|-1----3-1-------1-------|----------1---------|
G|----2----------------------|-0----------2-----------|------0-------------|
D|---3-----------------------|-2--------3-------------|----2---------------|
A|---------------------------|-3----------------------|--3-----------------|
E|--------------3------------|------------------------|--------------------|

   G   		C

e|----------------3-0------------|
B|---0---1-3----1-----3-1--------|
G|----0---------0---------0---0--|
D|--------------2-----------0----|
A|------------3-3----------------|
E|-3-----------------------------|


Capps Grayson Tabs & ChordsCapps Grayson Lyrics



Capps Grayson Tabs, Tablatures, Chords, Lyrics

Buy Capps Grayson CD
Capps Grayson
Buy Capps Grayson CD

  1. Capps Grayson - A Love Song For Bobby Long Chords
  2. Capps Grayson - Washboard Lisa Chords



cowboylyrics.com
All lyrics are property and copyright of their owners. All lyrics provided for educational purposes only.