Carlene Carter, I Fell In Love (solo) Tabs, Chords, Lyrics

Carlene Carter, I Fell In Love (solo) Tabs, Chords

 SITE MENU
 Request Tabs
 Add/Correct Tabs
 DMCA Policy
 Country Sheet Music
0

BROWSE LYRICS AND TABS BY ARTIST/BAND NAME: SEARCH HERE:
A B C D E F G H I J K L M N O P Q R S T U V W X Y Z #
 

Carlene Carter - I Fell In Love (solo) (Chords)


Carlene Carter CD
Carlene Carter Sheet music
Carlene Carter Posters
Carlene Carter:I Fell In Love (Solo)

Transcribed by Cal Van Etten 3/20/07

Note: This country solo has about all you could want to 
practice. Bends, open string licks and double stops and even
a tiny bit of sweep picking. So Enjoy!~Cal

P.S. If this isn't Brent Mason, alot of his licks were used.


E-----------------------------------------------------------
B-----------------------------------------------------------
G-0-----0---0-0-------3b(4)---5-3b(4)-----0-0-----0---------
D---3/5---5-----3p2p0-------5---------0-3-----------------0-
A---------------------------------------------4-3---0-1-2---
E-----------------------------------------------------------


E-----------------------------------------------------------
B-------------------------------0---------------------------
G---0-------------------0-----5---2p0-----------------------
D-2---3p2p0-2p0---0---3---5h7---------3b(4)-0-----------0---
A---------------3---5-------------------------4-3-0-1-2-----
E---------------------------------------------------------3-


E-------------------------------7-7-------------------------
B-------------------------------8-6-0-6-6-6-3-------0-----0-
G---------------------0-----7-9-----0-7-6-5-3h4---0-0-----0-
D-----------------0h2---7/9---------------------5-3---3p0---
A-------------1h2-------------------------------------------
E-3-3-3-3-3-3-----------------------------------------------

                          Rake down
E-----------------------------------------------------------
B-----0-----0-----5-3-3-------------------------------------
G-----0-----0-----5-3-4---4-----------------------------0---
D-3p0---3p0---3p0-------5---3---------------0---0-----4-----
A-----------------------------4\3p1---3-1h2---2---4/5-------
E-----------------------------------3-----------------------


E-------------------------------------------3-5b(7)-8-9-10-8
B-------0-----------------------3---3-----------------------
G-----5-------------------------------5-3/4-----------------
D-5/7-----7\5-3---3b(4)-0---3/4---4-------------------------
A---------------5---------0---------------------------------
E-----------------------------------------------------------


E-----------------------------------------------------------
B-11\10-8---8-8---------------------------------------------
G---------9-------------------------------------------------
D-----------------------------------------------------------
A-----------------------------------------------------------
E-----------------------------------------------------------


Carter Carlene Tabs & ChordsCarter Carlene Lyrics



Carter Carlene Tabs, Tablatures, Chords, Lyrics

Buy Carter Carlene CD
Carter Carlene
Buy Carter Carlene CD

  1. Carter Carlene - Come On Back Chords
  2. Carter Carlene - Every Little Thing Chords
  3. Carter Carlene - I Fell In Love Chords
  4. Carter Carlene - I Fell In Love (solo) Chords
  5. Carter Carlene - I ll Be All Smiles Tonight Chords
  6. Carter Carlene - I've Always Been Crazy Chords
  7. Carter Carlene - The Sweetest Thing-Capo Chords
  8. Carter Carlene - Unbreakable Heart Chords



cowboylyrics.com
All lyrics are property and copyright of their owners. All lyrics provided for educational purposes only.