Deana Carter, Once Upon A December Tabs, Chords, Lyrics

Deana Carter, Once Upon A December Tabs, Chords

 SITE MENU
 Request Tabs
 Add/Correct Tabs
 DMCA Policy
 Country Sheet Music
0

BROWSE LYRICS AND TABS BY ARTIST/BAND NAME: SEARCH HERE:
A B C D E F G H I J K L M N O P Q R S T U V W X Y Z #
 

Deana Carter - Once Upon A December (Chords)


Deana Carter CD
Deana Carter Sheet music
Deana Carter Posters
Intro:
  Am			    E                      C7
e----------5--------5--|R|---------4--------4--|R|---------3--------3-|R|
b-------5--------5-----|E|------5--------5-----|E|------5--------5----|E|
G----------5--------5--|P|---------4--------4--|P|---------3--------3-|P|
D----7-----------------|E|---6-----------------|E|---5----------------|E|
A-------------7--------|A|------------7--------|A|------------3-------|A|
E----------------------|T|---------------------|T|--------------------|T|


   Am      Am/F    Am       E
---------5------5-----------------4---
---------5------5--------5--------5---
------5------5--------4--------4------
---7---------------7--------6---------
-----------8----------------------7---
--------------------------------------



Chords as I name them, which probably isn't right:

 Am  E  A/C  Dm Dm/F Dm/G 
--0--0--------1---1----6--
--1--0---2----3---3----8--
--2--1---2----2---2----7--
--2--2---2----0---3----5--
--0--2---4----------------
--x--0--------------------


Verse:
Am      E      A/C     Dm
Dancing bears  Painted wings

Dm/F     Am     Dm/F E
Things I almost remember

Am    E    A/C     D
And a song someone sings

Dm/F    Am  E    Am
Once upon a December

Chorus:
Dm               Am
Someone holds me safe and warm

Dm                        Am      A
Horses prance through a silver storm

Dm/G            Am
Figures dancing gracefully

B            E
Across my memory


Am   E    A/C  Dm
Far away, long ago

Dm/F    Am       Dm/F E 
Glowing dim as an ember

Am        E     A/C     D
Things my heart Used to know

Dm/F   Am   E    Am
Once upon a December



Pre-Solo Riff
 Dm                Am      E
-----0-1--0^1^0--------------------
---3------------3--1--0----0-------
--2-------------2--2----2------1---
-0-------------------------2---2---
-------------------0---------------
---------------------------0-------


Solo
--------5-7-7^8^7^5-7---------------------9-12-12/15-15-13-------
-------5--------------9-5-------0------10------------17-15-------
------5------------------------------9---------------------------
-2/7-----------------------------/11-----------------------------
-----------------------------------------------------------------
-----------------------------------------------------------------

----13\---10\---8---7---5---7--7^8^7-5-7-4-----------------------
-------------------------------------------5--------------------
--14----10----9---7---5---7------------------4-4-7--------------
-----------------------------------------------------------------
-----------------------------------------------------------------
-----------------------------------------------------------------

--------5-7-8-/7----/10----/13-----/9------/12------14-----------
------5----------9------12-----15---10-10---14-14---15-----------
--5--------------------------------------------------------------
----7------------------------------------------------------------
-----------------------------------------------------------------
-----------------------------------------------------------------

------14^15-17-13-13--------13-12^13^12--------------------------
----15---------------15-----------------15-13-12-----12\---------
--14--------------------14-----------------------14--13\--13-----
----------------------------------------------------------14-----
-----------------------------------------------------------------
-----------------------------------------------------------------

-----------------------------------------------------------------
--------12-12^13^12----------------------------------------------
--13-14-------------14-12----------------------------------------
--------------------------15-14----------------------------------
-----------------------------------------------------------------
-----------------------------------------------------------------

Dm               Am
Someone holds me safe and warm

Dm                        Am      A
Horses prance through a silver storm

Dm/G            Am
Figures dancing gracefully

B            E
Across my memory


From here, everything moves up a half-step.
  
 A#m   F   A#/D  D#m   D#m/F# 
 -1-  -1-  ---   -2-    -2-  
 -2-  -1-  -3-   -4-    -4-  
 -3-  -2-  -3-   -3-    -3- 
 -3-  -3-  -3-   -1-    -4- 
 -1-  -3-  -5-   ---    --- 
 -x-  -1-  ---   ---    --- 


Am#   F    A#/D  D#m
Far away,  long  ago

D#m/F#  A#m        D#m/F#  F 
Glowing dim as  an   ember

A#m        F    A#/D     D#m
Things my heart Used to know

D#m/F#  A#m    F    A#m
Once    upon a December

                                       
Play these last chords like this:  D#m x68876  A#m 688666   F x87565  
 
D#m        A#m               
And a song someone sings

D#m   A#m       F  A#m  
Once  upon a December


Carter Deana Tabs & ChordsCarter Deana Lyrics



Carter Deana Tabs, Tablatures, Chords, Lyrics

Buy Carter Deana CD
Carter Deana
Buy Carter Deana CD

  1. Carter Deana - Absence Of The Heart Chords
  2. Carter Deana - Absence of the Heart Chords
  3. Carter Deana - Absense Of The Heart 2 Chords
  4. Carter Deana - Angels Working Overtime Chords
  5. Carter Deana - Before We Ever Heard Goodbye Chords
  6. Carter Deana - Colour Everywhere Chords
  7. Carter Deana - Count Me In Chords
  8. Carter Deana - Did I Shave Legs For This Chords
  9. Carter Deana - Did I Shave Legs For This 2 Chords
  10. Carter Deana - How Do I Get There Chords
  11. Carter Deana - How Do I Get There 2 Chords
  12. Carter Deana - How You Know Its Love Chords
  13. Carter Deana - I'm Just A Girl Chords
  14. Carter Deana - Ive Loved Enough To Know Chords
  15. Carter Deana - Once Upon A December Chords
  16. Carter Deana - One Day At A Time Chords
  17. Carter Deana - Ruby Brown Chords
  18. Carter Deana - Strawberry Wine Chords
  19. Carter Deana - Strawberry Wine 3 Chords
  20. Carter Deana - Strawberry Wine 4 Chords
  21. Carter Deana - Strawbery Wine 2 Chords
  22. Carter Deana - That's How You Know It's Love Chords
  23. Carter Deana - There's No Limit Chords
  24. Carter Deana - We Danced Anyway Chords
  25. Carter Deana - We Danced Anyway 2 Chords



cowboylyrics.com
All lyrics are property and copyright of their owners. All lyrics provided for educational purposes only.