Kenny Chesney, Somewhere In The Sun (complete Lead) Tabs, Chords, Lyrics

Kenny Chesney, Somewhere In The Sun (complete Lead) Tabs, Chords

 SITE MENU
 Request Tabs
 Add/Correct Tabs
 DMCA Policy
 Country Sheet Music
0

BROWSE LYRICS AND TABS BY ARTIST/BAND NAME: SEARCH HERE:
A B C D E F G H I J K L M N O P Q R S T U V W X Y Z #
 

Kenny Chesney - Somewhere In The Sun (complete Lead) (Tabs)


Kenny Chesney CD
Kenny Chesney Sheet music
Kenny Chesney Posters
Somewhere In The Sun
Kenny Chesney

To save space, Im only showing the 3 or 4 high strings.

Intro

E-----5-7--5-5-----5-7----5-7-8--7--5--3----3-2-----3---3-2-----3-
B5s7-----------7-------------------------------5p3---------5p3---
G-----------------------------------------------------------------
D-----------------------------------------------------------------

E--3-2-0h2------------5s7--5-5-----5-7----5-7-8--7--5--3----3-2-----3
B----------3--------------------7-------------------------------5p3--
G--------------------------------------------------------------------
D--------------------------------------------------------------------

E----3-2-----3----3-2-0h2------
B--------5p3--------------3----
G------------------------------
D------------------------------


Stuck here at a Holiday Inn near Austin, Texas
Seen all the road that I want to see

E-----10------------------9--------------------------------5------------------
B--------------------------------------7--------------------------------------
G--11-11------------------9--------------------------------7------------------
D--------------------------------------9--------------------------------------
           God I hate the snow,          even cancelled the show.     Makes me


E----------------------------------3----------5-------------------------------
B---------------------------------------------5-------------------------------
G----------------------------------5----------6-------------------------------
D-----------------------------------------------------------------------------
  long for where I really want to be                 Oh I wish I was there to-


E-----------------------------------------------------------------------------
B-------------------------------------------13-12-10--------------------------
G----------11-12-14-14(hold)-------------------------12-12--------------------
D-------12--------------------------------------------------------------------
  night                   on Jost Van Dyke                 Sipping on     some


E-----------------------------------------------------------------------------
B------------------------10-8---8--7---------10-------------------------------
G-----------------------------9-------9-7-7-----9-----------------------------
D-----------------------------------------------------------------------------
  Foxy's Firewater rum                                    Or kickin' back with


E--10--10--10--10---8-------------------------------10p8p7--------------------
B---------------------------------------------------------10---8--7-----------
G--11--11--11--11---9------------------------------------------------9--7-----
D-----------------------------------------------------------------------------
  Ivan                 With all my friends down in the islands         Wouldn't

E------------------------------------10-----9-----7-----5-----3-2-----------
B-----------------------------------------------------------------5-3---------
G--------------------------------9s11------9-----7-----6-----4----------------
D-----------------------------------------------------------------------------
  take much for me to up and run                                    To another


E------------------------------5s7-5-5-----5-7----5-7-8--7--5--3----3-2-----3-
B----------------------------------------7------------------------------5p3---
G-----------------------------------------------------------------------------
  life Somewhere in the sun


E--3-2-----3----3-2-0h2-------------------------------------------------------
B------5p3--------------3-----------------------------------------------------
G-----------------------------------------------------------------------------
                            Got cold fajitas and only one channel on the TV


E-----------------------------------------------------------
B-3--3------------------------------------------------3--3--
G-----------------------------------------------------------
D-4--4------------------------------------------------4--4--
            Andy and Barney on Nick at Nite


Seen an ad for Mexico, God I really want to go
Anywhere out of mind and out of sight


E------------------------------8s10--10--108---------------10p8p7----8--7----
B-----------------------------------------------------------------10--------8-
G-----------------------------------------------------------------------------
D-----------------------------------------------------------------------------
 Oh I wish I was there tonight               on Jost Van Dyke


E------------------------------------------12--10-----------------------------
B----------------------------------------10--10----12--10---------------------
G-----------------10-------------------11--------11--11-----11h12-11-9-11-----
D-----------------------------------------------------------------------------
  Sipping on some Foxy's Firewater rum                                      Or


E-----------------------------------------------------------------------------
B----------------------12p10-----10-------------------------------------------
G---------------------------11-------1111------------------------------------
D-----------------------------------------------------------------------------
kickin' back with Ivan                  With all my friends down in the islands


E-8s7---------------------------------10-----9-----7-----5-----3-2------------
B------------------------------------------------------------------5-3--------
G-----9-9s7-----------------------9s11------9-----7-----6-----4---------------
D-----------------------------------------------------------------------------
         Wouldn't take ...up and run                                 To another

E-------------------------------------12-12-12-10-----------------------------
B-----------------------------------------------------12----12-12-12-10---s8--
G-----------------------------------------------------------------------------
D-----------------------------------------------------------------------------
   life      somewhere in the sun

E-3p2-0----------0---3----2------3----5-----7--0-9-10--9--7----------
B-------3-0---0-1---1---1----1-3----3-----3------------------10-8-7--
G-----------2--------------------------------------------------------
D--------------------------------------------------------------------


E-10p9p7--------------------3p2p0---------------------------------------------
B--------10--8--7------------------0--3---0-----------------------------------
G------------------9--7----------------------2-3-4---------------------2------
D-----------------------------------------------------------------------------
                                                   Here's a toast to you on the


E-----------------2---5------0-h2---5----2h3----------------------------------
B-------------------------------------------5-------------------7-------------
G-----------------------------------------------------------------------------
  coast and the sailors out at sea            Drink your ales, hoist your sails


  Ride the winds and think of me
  Cause I wish I was there tonight on Jost Van Dyke
  Sipping on some Foxy's Firewater

                                                --  (D chord)
E-----10----9----7----5----3----2--------------------3p2-0h2------------------
B-------------------------------------------------------3---3-----------------
G-----11----9----7----6----4----2---------------------------------------------
D-----------------------------------------------------------------------------
  Rum                       Ah, kickin' back with Ivan     All my friends down


E-----------------------------------------------------------------------10----
B----------------1-3-1-0------------------


Chesney Kenny Tabs & ChordsChesney Kenny Lyrics



Chesney Kenny Tabs, Tablatures, Chords, Lyrics

Buy Chesney Kenny CD
Chesney Kenny
Buy Chesney Kenny CD

  1. Chesney Kenny - A Chance Chords
  2. Chesney Kenny - A Chance ( Corrected ) Chords
  3. Chesney Kenny - A Lot Of Things Different Chords
  4. Chesney Kenny - Ain't Back Yet Chords
  5. Chesney Kenny - Ain't Ever Going Back Again Chords
  6. Chesney Kenny - Aint That Love Chords
  7. Chesney Kenny - All I Need To Know Chords
  8. Chesney Kenny - All I Want For Christmas Is A Real Good Tan Chords
  9. Chesney Kenny - Always Gonna Be You Chords
  10. Chesney Kenny - Another Friday Night Chords
  11. Chesney Kenny - Anything But Mine Chords
  12. Chesney Kenny - Back In My Arms Again Chords
  13. Chesney Kenny - Back Where I Come From Chords
  14. Chesney Kenny - Back Where I Come From 2 Chords
  15. Chesney Kenny - Baptised Chords
  16. Chesney Kenny - Baptism 2 Chords
  17. Chesney Kenny - Baptism 3 Chords
  18. Chesney Kenny - Be As You Are Chords
  19. Chesney Kenny - Because Of Your Love Chords
  20. Chesney Kenny - Beer In Mexico Chords
  21. Chesney Kenny - Being Drunk's A Lot Like Loving You Chords
  22. Chesney Kenny - Better As A Memory Chords
  23. Chesney Kenny - Between Midnight And Daylight Chords
  24. Chesney Kenny - Big Star Chords
  25. Chesney Kenny - Boats Chords
  26. Chesney Kenny - Boston Chords
  27. Chesney Kenny - Brandy Chords
  28. Chesney Kenny - California Chords
  29. Chesney Kenny - Coastal Chords
  30. Chesney Kenny - Coconut Tree Chords
  31. Chesney Kenny - Come Monday Chords
  32. Chesney Kenny - Come Over Chords
  33. Chesney Kenny - Dancin' For The Groceries Chords
  34. Chesney Kenny - Demons Chords
  35. Chesney Kenny - Don't Happen Twice Chords
  36. Chesney Kenny - Dont Blink Chords
  37. Chesney Kenny - Down The Road Chords
  38. Chesney Kenny - Dreams Chords
  39. Chesney Kenny - Everybody Wants To Go To Heaven Chords
  40. Chesney Kenny - Fall In Love Chords
  41. Chesney Kenny - Fall In Love 2 Chords
  42. Chesney Kenny - Feel Like A Rockstar Chords
  43. Chesney Kenny - Flip Flop Summer Chords
  44. Chesney Kenny - For The First Time Chords
  45. Chesney Kenny - Freedom Fixed Chords
  46. Chesney Kenny - French Kissing Life Chords
  47. Chesney Kenny - From Hillbilly Heaven To Honky-tonk Chords
  48. Chesney Kenny - Good Stuff Chords
  49. Chesney Kenny - Got A Little Crazy Chords
  50. Chesney Kenny - Grandpa Told Me So Chords
  51. Chesney Kenny - Grandpa Told Me So 2 Chords
  52. Chesney Kenny - Guitars And Tiki Bars Chords
  53. Chesney Kenny - High And Dry Chords
  54. Chesney Kenny - Hillbilly Heaven Chords
  55. Chesney Kenny - Honey Would You Stand By Me Chords
  56. Chesney Kenny - How Forever Feels Chords
  57. Chesney Kenny - I Can't Go There Chords
  58. Chesney Kenny - I Didn't Get Here Alone Chords
  59. Chesney Kenny - I Finally Found Somebody Chords
  60. Chesney Kenny - I Go Back Chords
  61. Chesney Kenny - I Lost It Chords
  62. Chesney Kenny - I Lost It 2 Chords
  63. Chesney Kenny - I Might Get Over You Chords
  64. Chesney Kenny - I Remember Chords
  65. Chesney Kenny - I Think I Want My Rib Back Chords
  66. Chesney Kenny - I Wanna Know How Forever Chords
  67. Chesney Kenny - I Will Stand Chords
  68. Chesney Kenny - I Wonder Do You Think Of Me Chords
  69. Chesney Kenny - I'd Love To Lay You Down Chords
  70. Chesney Kenny - I'm Alive Chords
  71. Chesney Kenny - I'm On Fire Chords
  72. Chesney Kenny - I've Been There Chords
  73. Chesney Kenny - I've Been There Chords
  74. Chesney Kenny - In A Small Town Chords
  75. Chesney Kenny - In My Wildest Dreams Chords
  76. Chesney Kenny - In This Boat Alone Chords
  77. Chesney Kenny - Island Boy Chords
  78. Chesney Kenny - It's Never Easy To Say Goodbye Chords
  79. Chesney Kenny - Just A Kid Chords
  80. Chesney Kenny - Just Dont Happen Twice Chords
  81. Chesney Kenny - Just Dont Happen Twice 2 Chords
  82. Chesney Kenny - Just Not Today Chords
  83. Chesney Kenny - Keg In The Closet Chords
  84. Chesney Kenny - Key Lime Pie Chords
  85. Chesney Kenny - Keys In The Conch Shell Chords
  86. Chesney Kenny - Kiss Me, Kiss Me, Kiss Me Chords
  87. Chesney Kenny - Lay You Down Chords
  88. Chesney Kenny - License To Chill Chords
  89. Chesney Kenny - Life Is Good Chords
  90. Chesney Kenny - Like Me Chords
  91. Chesney Kenny - Lindy Chords
  92. Chesney Kenny - Live A Little Chords
  93. Chesney Kenny - Live Those Songs Chords
  94. Chesney Kenny - Livin In Fast Forward Tabs
  95. Chesney Kenny - Living In Fast Forward Chords
  96. Chesney Kenny - Lonely, Needin' Lovin' Chords
  97. Chesney Kenny - Luckenbach, Texas (with Kid Rock) Chords
  98. Chesney Kenny - Makes Me Wonder Chords
  99. Chesney Kenny - Marley Chords
  100. Chesney Kenny - Me And You Chords
  101. Chesney Kenny - Me And You (correct Intro) Tabs
  102. Chesney Kenny - Me And You (corrected Intro) Tabs
  103. Chesney Kenny - Me And You 2 Chords
  104. Chesney Kenny - Must Be Something I Missed Chords
  105. Chesney Kenny - My Poor Ol' Heart Chords
  106. Chesney Kenny - Never Easy Say Goodbye Chords
  107. Chesney Kenny - Never Easy To Say Goodbye Chords
  108. Chesney Kenny - Never Gonna Feel That Way Again Chords
  109. Chesney Kenny - Never Wanted Nothing More Chords
  110. Chesney Kenny - No Shoes, No Shirt, No Problems Chords
  111. Chesney Kenny - No Small Miracle Chords
  112. Chesney Kenny - Nowhere To Go Nowhere To Be Chords
  113. Chesney Kenny - Ol Bird Dog Chords
  114. Chesney Kenny - Old Blue Chair Chords
  115. Chesney Kenny - On The Coast Of Somewhere Beautiful Chords
  116. Chesney Kenny - On The Coast Of Somewhere Beautiful 2 Chords
  117. Chesney Kenny - One Step Up Chords
  118. Chesney Kenny - Out Last Night Chords
  119. Chesney Kenny - Out Last Night 2 Chords
  120. Chesney Kenny - Outta Here Chords
  121. Chesney Kenny - Paris, Tn Chords
  122. Chesney Kenny - Pirate Flag Chords
  123. Chesney Kenny - Please Come To Boston Chords
  124. Chesney Kenny - Pretty Paper Chords
  125. Chesney Kenny - Reality Chords
  126. Chesney Kenny - Road And The Radio Chords
  127. Chesney Kenny - Round And Round Chords
  128. Chesney Kenny - Scare Me Chords
  129. Chesney Kenny - Seven Days Chords
  130. Chesney Kenny - She Gets That Way Chords
  131. Chesney Kenny - She Thinks My Tractors Sexy Chords
  132. Chesney Kenny - She Thinks My Tractors Sexy 2 Chords
  133. Chesney Kenny - Sherry's Living In Paradise Chords
  134. Chesney Kenny - Shes Got It All Chords
  135. Chesney Kenny - Shes Got It All 2 Chords
  136. Chesney Kenny - Shift Work Chords
  137. Chesney Kenny - Sing 'em Good My Friend Chords
  138. Chesney Kenny - Small Y'all Chords
  139. Chesney Kenny - Some People Change Chords
  140. Chesney Kenny - Somebody's Callin' Chords
  141. Chesney Kenny - Someone Else's Hog Chords
  142. Chesney Kenny - Something Sexy About The Rain Tabs
  143. Chesney Kenny - Somewhere In The Sun Chords
  144. Chesney Kenny - Somewhere In The Sun (complete Lead) Tabs
  145. Chesney Kenny - Somewhere With You Chords
  146. Chesney Kenny - Somewhere With You (no Capo) Chords
  147. Chesney Kenny - Soul Of A Sailor Chords
  148. Chesney Kenny - Soul Of A Sailor (Complete Lead) Tabs
  149. Chesney Kenny - Spirit Of A Storm Chords
  150. Chesney Kenny - Spread The Love Chords
  151. Chesney Kenny - Steamy Windows Tabs
  152. Chesney Kenny - Summertime Chords
  153. Chesney Kenny - Ten With A Two Chords
  154. Chesney Kenny - Tequila Loves Me Chords
  155. Chesney Kenny - Tequilla Loves Me Tabs
  156. Chesney Kenny - That Luck Old Sun Chords
  157. Chesney Kenny - Thats Why Im Here Chords
  158. Chesney Kenny - The Angel At The Top Of My Tree Chords
  159. Chesney Kenny - The Bigger The Fool ( The Harder The Fall ) Chords
  160. Chesney Kenny - The Boys of Fall Chords
  161. Chesney Kenny - The Good Stuff Chords
  162. Chesney Kenny - The Good Stuff 2 Chords
  163. Chesney Kenny - The Life Chords
  164. Chesney Kenny - The Road And The Radio Chords
  165. Chesney Kenny - The Road And The Radio (complete Chord Pattern) Chords
  166. Chesney Kenny - The Tin Man Chords
  167. Chesney Kenny - The Tin Man 2 Chords
  168. Chesney Kenny - The Woman With You Chords
  169. Chesney Kenny - The Woman With You Solo Tabs
  170. Chesney Kenny - There Goes My Life Chords
  171. Chesney Kenny - There Goes My Life 2 Chords
  172. Chesney Kenny - This Is Our Time Chords
  173. Chesney Kenny - To Get To You (55th And 3rd) Chords
  174. Chesney Kenny - To Get To You (55th And 3rd) W/capo Chords
  175. Chesney Kenny - Touchdown Tennessee Tabs
  176. Chesney Kenny - Tush Chords
  177. Chesney Kenny - Tush (rythym) Tabs
  178. Chesney Kenny - Two With A Ten Chords
  179. Chesney Kenny - Way Down Here Chords
  180. Chesney Kenny - What I Need To Do Chords
  181. Chesney Kenny - When I Close My Eyes Chords
  182. Chesney Kenny - When I Close My Eyes2 Chords
  183. Chesney Kenny - When I See This Bar Chords
  184. Chesney Kenny - When I Think About Leaving Chords
  185. Chesney Kenny - When She Calls Me Baby Chords
  186. Chesney Kenny - When The Sun Goes Down Chords
  187. Chesney Kenny - Where I Grew Up Chords
  188. Chesney Kenny - While He Still Knows Who I Am Chords
  189. Chesney Kenny - Who You'd Be Today Chords
  190. Chesney Kenny - Wife And Kids Chords
  191. Chesney Kenny - You Had Me From Hello Chords
  192. Chesney Kenny - You Save Me Chords
  193. Chesney Kenny - You Win I Win We Lose Chords
  194. Chesney Kenny - You and Tequila Chords
  195. Chesney Kenny - Young Chords
  196. Chesney Kenny - Young (with intro) Chords
  197. Chesney Kenny - Young(revised) Tabs



cowboylyrics.com
All lyrics are property and copyright of their owners. All lyrics provided for educational purposes only.