Chris LeDoux, Running Through The Rain Tabs, Chords, Lyrics

Chris LeDoux, Running Through The Rain Tabs, Chords

 SITE MENU
 Request Tabs
 Add/Correct Tabs
 DMCA Policy
 Country Sheet Music
0

BROWSE LYRICS AND TABS BY ARTIST/BAND NAME: SEARCH HERE:
A B C D E F G H I J K L M N O P Q R S T U V W X Y Z #
 

Chris LeDoux - Running Through The Rain (Chords)


Chris LeDoux CD
Chris LeDoux Sheet music
Chris LeDoux Posters
Chris LeDoux      Running Through the Rain

Lead guitar plays over Gs and Cs with lots of hammers/pulls on the A and D strings.


Intro:
E--------------------------------------------------------|
B--------------------------------------------------------|
G--------bh----------------------------------------------|
D-----5-7(9)-9/7-5h7-5-----------------0----------------|
A-5h7--------------------7\5-3-7-5--0h2---3--------------|
E--------------------------------------------------------|

E--------------------------------------------------------|
B--------------------------------------------------------|
G--------------------------------------------------------|
D---------------------------------------5--2p0----------|
A-5h7-5-7p5-7---------------------5h7p5----------b-r-----|
E--------------5-5h7p5-2-3--3-5h7---------------5(6)5-3--|

(G)Last night we rode our (C)broncs in (G)Seattle,
me and Bill packed the (C)car in the pourin' (D)rain.
(G)Witch and John were at the (C)beer stand, gettin' (G)sprattled (C)
but we (G)got 'em gathered and (D)hit the road (G)again.

Chewin' sneuss and spittin' in a bottle.
Country music blastin' on the radio.
Talkin' girls and broncs and gold belt buckles.
Rollin' south to a California rodeo.

Chorus
Just (C)rollin' down that (D)great American (G)highway,
with the (C)mornin' sky (G)lit up like a (D)flame.
(G)Chasin' dreams and (C)followin' a (G)rainbow (C)
(G)Like children (D)runnin' through the (G)rain.

Well it's rodeo time in Oakdale, California.
And we stumble with the trash out of the car.
And ole Bill looks at me through whiskers and wild, red eyeballs,
And says, we look more like hobo's than big-time rodeo stars.

Well we ride our broncs and we all win a little money.
And there's Witch over at the beer stand again, but look, 
he's got his arm around a little California honey.
An' Bill says...I wonder if that lady there's got any friends.

Chorus

Well, the years went by and now we've all got families.
Ah, but we still get together every now and then,
And we talk about all the bad broncs and good times.
Lord, somtimes I wish I was back on that road again...

Chorus
Just chasin dreams and followin' a rainbow...
Like crazy children runnin' through the rain...

E-------------------|------------------------------------0---|----------------------|
B-------------------|----------------------------------3---3-|----------------------|
G-------------------|--------bh------------------------------|--------bh------------|
D-------------5-5-5-|-----5-7(9)-9\7-5h7-5-------------------|-----5-7(9)-9/7-5h7-5-|
A-------5---7-------|-5h7-------------------7\5-3-7-5--------|-5h7------------------|
E-3-5h7---7---------|----------------------------------------|----------------------|

E------------------------|----------------------------------------------------------|
B------------------------|----------------------------------------------------------|
G------------------------|--------bh------------------------------------------------|
D-----5-5/7~-7p5--b-r----|-----5-7(9)-9\7-5h7-5---------------0---------------------|
A-5h7------------7(9)7-5-|-5h7------------------7\5-3-7-5-0h2---3-------------------|
E------------------------|----------------------------------------------------------|

E-----------------------------------------------------------------------------------|
B-----------------------------------------------------------------------------------|
G-----------------------------------------------------------------------------------|
D-----------5-----------------------------5--5-2p0----------------------------------|
A-5h7-7p5-5---7-5-----------------5h7p5h7----------2p0------------------------------|
E-----------------5h7p5-2-3-3-5h7----------------------3----------------------------| 


Chris LeDoux Tabs & Chords



Chris LeDoux Tabs, Tablatures, Chords, Lyrics

Buy Chris LeDoux CD
Chris LeDoux
Buy Chris LeDoux CD

  1. Chris LeDoux - (i Used To Want To Be A) Cowboy Chords
  2. Chris LeDoux - A Cowboy Was Born Chords
  3. Chris LeDoux - A Cowboys Got To Ride Chords
  4. Chris LeDoux - All Wound Up Chords
  5. Chris LeDoux - Amarillo Lights Chords
  6. Chris LeDoux - Bad Brahma Bull Chords
  7. Chris LeDoux - Bang a Drum Chords
  8. Chris LeDoux - Bareback Jack (live) Chords
  9. Chris LeDoux - Blue Eyes and Freckles Chords
  10. Chris LeDoux - Bluebonnet Blues Chords
  11. Chris LeDoux - Cadillac Cowboy (corrected) Chords
  12. Chris LeDoux - Can't See Him From The Road Tabs
  13. Chris LeDoux - Chris And The Saddle Boogie Band Tabs
  14. Chris LeDoux - Copenhagen (with Toby Keith) Tabs
  15. Chris LeDoux - Country Star Chords
  16. Chris LeDoux - County Fair (correct) Chords
  17. Chris LeDoux - Cowboy Up Chords
  18. Chris LeDoux - Cowboys Like A Little Rock'n'roll Chords
  19. Chris LeDoux - Daily Bread (w/ Chords) Chords
  20. Chris LeDoux - Dallas Days And Fort Worth Nights Chords
  21. Chris LeDoux - Even Cowboys Like A Little Bit Of Rock & Roll Chords
  22. Chris LeDoux - Even Cowboys Like A Little Rock And Roll Tabs
  23. Chris LeDoux - Every Time I Roll the Dice Chords
  24. Chris LeDoux - Fathers And Sons Chords
  25. Chris LeDoux - For Your Love Chords
  26. Chris LeDoux - God Must Be A Cowboy Chords
  27. Chris LeDoux - Goin' and a Blowin' Chords
  28. Chris LeDoux - Gravitational Pull Chords
  29. Chris LeDoux - Hairtrigger Colt 44 Chords
  30. Chris LeDoux - He Rides the Wild Horses Chords
  31. Chris LeDoux - Hoka Hey, Lakotas Chords
  32. Chris LeDoux - Homegrown Western Saturday Night Chords
  33. Chris LeDoux - Honky Tonk World Tabs
  34. Chris LeDoux - Hooked On An 8 Second Ride Chords
  35. Chris LeDoux - Hooked On An 8 Second Ride (live) Tabs
  36. Chris LeDoux - Horsepower Chords
  37. Chris LeDoux - Horses and Cattle Chords
  38. Chris LeDoux - I Believe In America Chords
  39. Chris LeDoux - I Dont Want To Mention Any Names Chords
  40. Chris LeDoux - I'm Ready If You're Willin' Chords
  41. Chris LeDoux - I've Got To Be A Rodeo Man (corrected) Chords
  42. Chris LeDoux - Johnson County War Chords
  43. Chris LeDoux - Just Look At You Girl Chords
  44. Chris LeDoux - Little Long Haired Outlaw Tabs
  45. Chris LeDoux - Little Longhaired Outlaw Chords
  46. Chris LeDoux - Look At You Girl (corrected) Chords
  47. Chris LeDoux - Look at You, Girl Chords
  48. Chris LeDoux - Makin' Ends Meet Chords
  49. Chris LeDoux - Melodies And Memories Chords
  50. Chris LeDoux - Mighty Lucky Man Chords
  51. Chris LeDoux - Mountain Wild Chords
  52. Chris LeDoux - My Heroes Have Always Been Cowboys Chords
  53. Chris LeDoux - National Finals Rodeo Chords
  54. Chris LeDoux - Night Rider's Lament Chords
  55. Chris LeDoux - Old Paint Chords
  56. Chris LeDoux - One Less Tornado Chords
  57. Chris LeDoux - One Ride in Vegas Chords
  58. Chris LeDoux - Paint Me Back Home In Wyoming Chords
  59. Chris LeDoux - Photo Finish Chords
  60. Chris LeDoux - Rainbow Rider Tabs
  61. Chris LeDoux - Reride Chords
  62. Chris LeDoux - Rodeo Rose Chords
  63. Chris LeDoux - Runnaway Love Chords
  64. Chris LeDoux - Running Through The Rain Chords
  65. Chris LeDoux - Rusty Spurs Chords
  66. Chris LeDoux - Scatter The Ashes Chords
  67. Chris LeDoux - Seventeen Corrected Tabs
  68. Chris LeDoux - She's Tough Chords
  69. Chris LeDoux - Shot Full Of Love (corrected) Chords
  70. Chris LeDoux - Silence on the Line Chords
  71. Chris LeDoux - Some Things Never Change (w/ Garth Brooks) Chords
  72. Chris LeDoux - Strugglin' Years Chords
  73. Chris LeDoux - Take Me To The Rodeo Chords
  74. Chris LeDoux - Ten Seconds In The Saddle Chords
  75. Chris LeDoux - Thank The Cowboy For The Ride Chords
  76. Chris LeDoux - The Borderline Tabs
  77. Chris LeDoux - The Bucking Machine Chords
  78. Chris LeDoux - The Buffalo Grass Chords
  79. Chris LeDoux - The Greatest Prize Chords
  80. Chris LeDoux - The Last Drive-in Chords
  81. Chris LeDoux - The Littlest Cowboy Rides Again Chords
  82. Chris LeDoux - There's Nobody Home On The Range Anymore Chords
  83. Chris LeDoux - This Cowboy's Hat Chords
  84. Chris LeDoux - Tight Levis And Yellow Ribbons Chords
  85. Chris LeDoux - Tight Levis And Yellow Ribbons 2 Chords
  86. Chris LeDoux - Under This Old Hat Chords
  87. Chris LeDoux - Western Skies (corrected In G) Chords
  88. Chris LeDoux - Western Skies (different Format) Chords
  89. Chris LeDoux - Whatcha Gonna Do With a Cowboy Chords
  90. Chris LeDoux - When I Say Forever Chords
  91. Chris LeDoux - Wild And Wooly Chords
  92. Chris LeDoux - Workin' Mans Dollar Chords
  93. Chris LeDoux - You Just Can't See Him From The Road (correction) Chords
  94. Chris LeDoux - You Just Can't See Him From the Road Chords



cowboylyrics.com
All lyrics are property and copyright of their owners. All lyrics provided for educational purposes only.