Eric Church, Hell On The Heart (lead) Tabs, Chords, Lyrics

Eric Church, Hell On The Heart (lead) Tabs, Chords

 SITE MENU
 Request Tabs
 Add/Correct Tabs
 DMCA Policy
 Country Sheet Music
0

BROWSE LYRICS AND TABS BY ARTIST/BAND NAME: SEARCH HERE:
A B C D E F G H I J K L M N O P Q R S T U V W X Y Z #
 

Eric Church - Hell On The Heart (lead) (Chords)


Eric Church CD
Eric Church Sheet music
Eric Church Posters
It sounds like the guitar is in dropped C tuning.
Tune the guitar down a full step, and then drop the 6th string to C.

Here is what I got:

Intro:
D----------------------------------------------------------------------------------
A----------------------------------------------------------------------------------
F----------------------------------------------------------------------------------
C------0-------------0------0-0------0------0-0-----0-----0-0---------0---2-0--0---
G--0h2----4--2p0----0---------------0--------------0--------------0h2---2-----4----
C------------------0----5----5-----0----5----5----4----5---5-----------------------

The turnaround after the 1st chorus is almost the exact same without the half measure kickoff.

This is played by an acoustic under Verse 2:

D-----14-12-14--------14-12-14--------14-12-14---------14-12-14----------
A--15----------15--------------15--------------15---------------15-------
F------------------14--------------14---------------14-------------------
C------------------------------------------------------------------------
G------------------------------------------------------------------------
C------------------------------------------------------------------------

D-----14-12-14--------14-12-14--------14-12-14-----------14p0--12p0--14---12p0------
A--15----------15--------------15--------------15----**15----15----15---------15~---
F------------------14--------------14-----------------------------------------------
C-----------------------------------------------------------------------------------
G-----------------------------------------------------------------------------------
C-----------------------------------------------------------------------------------


**This lick is not in the song.  It's a quick little banjo fill.  You can play nothing,
or you can try this lick.  It sounds pretty cool and I thought I'd include it.

Bridge

D-------10-------9--------7--------10--------10-------9------7--------------------------
A----------------------------------------------------------------------10-----10--------
F---/11-------/9-------/7------/11-------/11-------/9-----/7-----------------------7----
C------------------------------------------------------------------7-9-----7-9---9------
G---------------------------------------------------------------------------------------
C---------------------------------------------------------------------------------------

Hope this helps.


Church Eric Tabs & ChordsChurch Eric Lyrics



Church Eric Tabs, Tablatures, Chords, Lyrics

Buy Church Eric CD
Church Eric
Buy Church Eric CD

  1. Church Eric - A Lot Of Boot Left To Fill Chords
  2. Church Eric - Ain't Killed Me Yet Chords
  3. Church Eric - Alot Of Boot Left To Fill (intro) Chords
  4. Church Eric - Before She Does Chords
  5. Church Eric - Can't Take It With You Chords
  6. Church Eric - Carolina Chords
  7. Church Eric - Chevy Van Chords
  8. Church Eric - Cold One Chords
  9. Church Eric - Country Music Jesus Chords
  10. Church Eric - Creepin' Chords
  11. Church Eric - Dark Side Chords
  12. Church Eric - Drink In My Hand Chords
  13. Church Eric - Drink In My Hand (intro) Chords
  14. Church Eric - Faster Than My Angels Can Fly Chords
  15. Church Eric - Give Me Back My Hometown Chords
  16. Church Eric - Guys Like Me Chords
  17. Church Eric - Hard Way Chords
  18. Church Eric - Hell On The Heart Chords
  19. Church Eric - Hell On The Heart (lead) Chords
  20. Church Eric - His Kind Of Money / My Kind Of Love Chords
  21. Church Eric - Homeboy Chords
  22. Church Eric - Homeboy (intro) Tabs
  23. Church Eric - Homeboy (solo) Tabs
  24. Church Eric - Homeboy v2 Chords
  25. Church Eric - How 'bout You Chords
  26. Church Eric - How Bout You (original Capo 4) Chords
  27. Church Eric - Hung Over And Hard Up Chords
  28. Church Eric - Im Gettin Stoned Chords
  29. Church Eric - Jack Daniels Chords
  30. Church Eric - Julia Chords
  31. Church Eric - Julia (live) Chords
  32. Church Eric - Keep On Chords
  33. Church Eric - Leave My Willie Alone Chords
  34. Church Eric - Lightning Chords
  35. Church Eric - Like Jesus Does Chords
  36. Church Eric - Livin Part of Life (Acoustic drop D) Chords
  37. Church Eric - Livin' Part Of Life Chords
  38. Church Eric - Longer Gone Chords
  39. Church Eric - Love Your Love The Most Chords
  40. Church Eric - Love Your Love The Most (intro) Chords
  41. Church Eric - Michael Chords
  42. Church Eric - My Heart's Got A Memory Chords
  43. Church Eric - Over When It's Over Chords
  44. Church Eric - Over When It's Over (intro) Chords
  45. Church Eric - Pledge Allegiance To The Hag Chords
  46. Church Eric - Roller Coaster Ride Chords
  47. Church Eric - She Won't Leave My Willie Alone Chords
  48. Church Eric - Sinners Like Me Chords
  49. Church Eric - Smoke A Little Smoke Chords
  50. Church Eric - Smoke a Little Smoke 2 Chords
  51. Church Eric - Springsteen Chords
  52. Church Eric - Standing There Ground Chords
  53. Church Eric - The Hard Way Chords
  54. Church Eric - The Outsiders Chords
  55. Church Eric - The World Needs A Drink Chords
  56. Church Eric - These Boots Chords
  57. Church Eric - Those I've Loved Chords
  58. Church Eric - Two Pink Lines Chords
  59. Church Eric - Waiting On Me To Cross That Line Chords
  60. Church Eric - Wasted Whiskey Chords
  61. Church Eric - What I Almost Was Chords
  62. Church Eric - Where She Told Me To Go (Corrected) Chords
  63. Church Eric - Without You Here Chords
  64. Church Eric - Woke Up This Morning Chords
  65. Church Eric - You Make It Look So Easy Chords
  66. Church Eric - Young And Wild Chords
  67. Church Eric - Young And Wild - Capo Chords



cowboylyrics.com
All lyrics are property and copyright of their owners. All lyrics provided for educational purposes only.