Eric Church, Homeboy (solo) Tabs, Chords, Lyrics

Eric Church, Homeboy (solo) Tabs, Chords

 SITE MENU
 Request Tabs
 Add/Correct Tabs
 DMCA Policy
 Country Sheet Music
0

BROWSE LYRICS AND TABS BY ARTIST/BAND NAME: SEARCH HERE:
A B C D E F G H I J K L M N O P Q R S T U V W X Y Z #
 

Eric Church - Homeboy (solo) (Tabs)


Eric Church CD
Eric Church Sheet music
Eric Church Posters
Tune down a half step and drop D 

pb=prebend
pbh=prebend hold
pbr=prebend release


Eb---14hold--12-10-------10-10-------10-10----
Bb-----------------12-10-------12-10-------12-
Gb--------------------------------------------
Db--------------------------------------------
Ab--------------------------------------------
Db--------------------------------------------

Eb--12-12-10-12---12-10----12-12-10-12---12-10
Bb--------------------------------------------
Gb--------------------------------------------
Db--------------------------------------------
Ab--------------------------------------------
Db--------------------------------------------

Eb-10-12-12--10-12-12--10-12-12-10-12---12-10-
Bb--------------------------------------------
Gb--------------------------------------------
Db--------------------------------------------
Ab--------------------------------------------
Db--------------------------------------------

Eb--14-10-10--12-10-10-----10-10----10-10---------
Bb----------------------12-------10-------8/7-----
Gb--------------------------------------------9p7-
Db------------------------------------------------
Ab------------------------------------------------
Db------------------------------------------------

Eb-------10-----------------------------------
Bb--10bh-----10pbr--8p7--------------10---10--
Gb----------------------9-7-----9bh--9pbh-9pbh
Db--------------------------------------------
Ab--------------------------------------------
Db--------------------------------------------

Eb--------------------------------------------
Bb---10---------------------------------------
Gb---9pbr---------------------------------
Db---------------------------------------
Ab--------------------------------------------
Db-------------------------12/0---------------


Church Eric Tabs & ChordsChurch Eric Lyrics



Church Eric Tabs, Tablatures, Chords, Lyrics

Buy Church Eric CD
Church Eric
Buy Church Eric CD

  1. Church Eric - A Lot Of Boot Left To Fill Chords
  2. Church Eric - Ain't Killed Me Yet Chords
  3. Church Eric - Alot Of Boot Left To Fill (intro) Chords
  4. Church Eric - Before She Does Chords
  5. Church Eric - Can't Take It With You Chords
  6. Church Eric - Carolina Chords
  7. Church Eric - Chevy Van Chords
  8. Church Eric - Country Music Jesus Chords
  9. Church Eric - Creepin' Chords
  10. Church Eric - Drink In My Hand Chords
  11. Church Eric - Drink In My Hand (intro) Chords
  12. Church Eric - Faster Than My Angels Can Fly Chords
  13. Church Eric - Guys Like Me Chords
  14. Church Eric - Hard Way Chords
  15. Church Eric - Hell On The Heart Chords
  16. Church Eric - Hell On The Heart (lead) Chords
  17. Church Eric - His Kind Of Money / My Kind Of Love Chords
  18. Church Eric - Homeboy Chords
  19. Church Eric - Homeboy (intro) Tabs
  20. Church Eric - Homeboy (solo) Tabs
  21. Church Eric - Homeboy v2 Chords
  22. Church Eric - How 'bout You Chords
  23. Church Eric - How Bout You (original Capo 4) Chords
  24. Church Eric - Hung Over And Hard Up Chords
  25. Church Eric - Im Gettin Stoned Chords
  26. Church Eric - Jack Daniels Chords
  27. Church Eric - Julia Chords
  28. Church Eric - Julia (live) Chords
  29. Church Eric - Keep On Chords
  30. Church Eric - Leave My Willie Alone Chords
  31. Church Eric - Lightning Chords
  32. Church Eric - Like Jesus Does Chords
  33. Church Eric - Livin Part of Life (Acoustic drop D) Chords
  34. Church Eric - Livin' Part Of Life Chords
  35. Church Eric - Longer Gone Chords
  36. Church Eric - Love Your Love The Most Chords
  37. Church Eric - Love Your Love The Most (intro) Chords
  38. Church Eric - Michael Chords
  39. Church Eric - My Heart's Got A Memory Chords
  40. Church Eric - Over When It's Over Chords
  41. Church Eric - Over When It's Over (intro) Chords
  42. Church Eric - Pledge Allegiance To The Hag Chords
  43. Church Eric - She Won't Leave My Willie Alone Chords
  44. Church Eric - Sinners Like Me Chords
  45. Church Eric - Smoke A Little Smoke Chords
  46. Church Eric - Smoke a Little Smoke 2 Chords
  47. Church Eric - Springsteen Chords
  48. Church Eric - Standing There Ground Chords
  49. Church Eric - The Hard Way Chords
  50. Church Eric - The World Needs A Drink Chords
  51. Church Eric - These Boots Chords
  52. Church Eric - Those I've Loved Chords
  53. Church Eric - Two Pink Lines Chords
  54. Church Eric - Waiting On Me To Cross That Line Chords
  55. Church Eric - Wasted Whiskey Chords
  56. Church Eric - What I Almost Was Chords
  57. Church Eric - Where She Told Me To Go (Corrected) Chords
  58. Church Eric - Without You Here Chords
  59. Church Eric - Woke Up This Morning Chords
  60. Church Eric - You Make It Look So Easy Chords
  61. Church Eric - Young And Wild Chords
  62. Church Eric - Young And Wild - Capo Chords



cowboylyrics.com
All lyrics are property and copyright of their owners. All lyrics provided for educational purposes only.