Cody Canada & The Departed, Skyline Radio (lead) Tabs, Chords, Lyrics

Cody Canada & The Departed, Skyline Radio (lead) Tabs, Chords

 SITE MENU
 Request Tabs
 Add/Correct Tabs
 DMCA Policy
 Country Sheet Music
0

BROWSE LYRICS AND TABS BY ARTIST/BAND NAME: SEARCH HERE:
A B C D E F G H I J K L M N O P Q R S T U V W X Y Z #
 

Cody Canada & The Departed - Skyline Radio (lead) (Chords)


Cody Canada & The Departed CD
Cody Canada & The Departed Sheet music
Cody Canada & The Departed Posters
this is the intro (1x only0 and main lead part. Sounded it out on my own, feedback would be appreciated.

Intro:
e-----------------------------------------------e
B-----------------------------------------------B
G-----5----4-10-10---7-----5------7-------5-7---G not entirely sure of last two notes, if you have something
D----5-5-5-5-10-10--7-7-7-5-5-5--7-7-7---7------D better please let me know. Thank you
A---3---3--3-8--7--5---5-3---3------5-----------A
D------------------------------0------3s5-------D


Main Lead Riff:
e-------------------------------------------------------------------------e
B---------------------------------------------------8-8s10-8--------------B
G------5-------5-------5---7s9-7s9-7p5-------5---7s9--------7br-5-5h7-5---G
D---5h7-7p5-5h7-7p5-5h7-7p5-----------7-5-5h7-7p5----------------7--------D
A-------------------------------------------------------------------------A


Cody Canada & The Departed Tabs & ChordsCody Canada & The Departed Lyrics



Cody Canada & The Departed Tabs, Tablatures, Chords, Lyrics

Buy Cody Canada & The Departed CD
Cody Canada & The Departed
Buy Cody Canada & The Departed CD

  1. Cody Canada & The Departed - A Little Rain Will Do Chords
  2. Cody Canada & The Departed - Cold Hard Fact Chords
  3. Cody Canada & The Departed - Make Yourself Home Chords
  4. Cody Canada & The Departed - Prayer For The Lonely Chords
  5. Cody Canada & The Departed - Skyline Radio Chords
  6. Cody Canada & The Departed - Skyline Radio (lead) Chords
  7. Cody Canada & The Departed - Staring Down The Sun Chords
  8. Cody Canada & The Departed - The Ballad Of Rosalie Chords
  9. Cody Canada & The Departed - Water Your Own Yard Chords
  10. Cody Canada & The Departed - Years In The Making Chords



cowboylyrics.com
All lyrics are property and copyright of their owners. All lyrics provided for educational purposes only.