Corb Lund Band, Daughter Don't You Marry Tabs, Chords, Lyrics

Corb Lund Band, Daughter Don't You Marry Tabs, Chords

 SITE MENU
 Request Tabs
 Add/Correct Tabs
 DMCA Policy
 Country Sheet Music
0

BROWSE LYRICS AND TABS BY ARTIST/BAND NAME: SEARCH HERE:
A B C D E F G H I J K L M N O P Q R S T U V W X Y Z #
 

Corb Lund Band - Daughter Don't You Marry (Tabs)


Corb Lund Band CD
Corb Lund Band Sheet music
Corb Lund Band Posters
Great tune by a great band. Anyways there's a couple key changes in the middle 
of the song, and at the last verse.The the 

only way I could play it is if you slide the capo form 4th to 5th to 6th which 
yes, is pretty awkward . There's gotta be an 

easier less awkward way of playin it, but hey sounds decent. You can even get 
away with only 1 capo change. With the capo in 

the 5th position for the last verse play Bb instead of A, and play Ab instead 
of G. But doing this you can't play the riffs 

in key. Anyways have fun with it.

CAPO 4

INTRO

e|----------------------------------------------------------------------------------------------------
b|-----------------------------1b-----------------------------------------------1---1--3b---3---1-----
g|-0h1h2-2---0h1h2-2---0h1h2-2----2--0h1h2-2--0h1h2-2--0h1h2-2--0-----0h1h2-2-----2---------------2---
d|----------------------------------------------------------------2-----------------------------------
a|----------------------------------------------------------------------------------------------------
e|----------------------------------------------------------------------------------------------------

e|------------------------------------|
b|---0h1h2-0--------------------------|
g|------------2-1-2-1-0-------------0-|
d|-----------------------3b---0-----0-|
a|----------------------------------2-|
e|----------------------------------3-|


A					RIFF 1
Who should I marry, Daddy who should I marry?

A					RIFF 1
Daughter, don't you marry no soldier sailor

A					RIFF 1
Daughter, don't you marry no young crusader

A					
Daughter, don't you marry no guitar picker

A							G     RIFF 1  RIFF 2	
Cuz they ain't no good and they ain't gonna stick around


Daughter, don't you marry no degenerate gambler
Daughter, don't you marry no Hollywood wrangler
Daughter, don't you marry no guitar picker
Cuz they ain't no good and they ain't gonna stick around

CAPO 5

A
Who should I marry, Daddy who should I marry?


Daughter, don't you marry no bible thumper
Daughter, don't you marry no old claim jumper
Daughter, don't you marry no guitar picker
Cuz they ain't no good and they ain't gonna stick around


Daughter, don't you marry no dirt poor farmer
Daughter, don't you marry no slick snake charmer
Daughter, don't you marry no guitar picker
Cuz they ain't no good and they ain't gonna stick around

CAPO 6

A
Who's that leave, Daddy, who's that leave me?


Lean in close and listen real carefully
You find yourself a man in oil and cattle
At the very least there'll be beefsteak to eat
And a couple of buckets of crude oil to heat your castle

OUTRO
same as intro end in A




RIFF 1

e|------------------------------------|
b|---------------1---1--3b---3---1----|
g|-----0h1h2-2-----2---------------2--|
d|------------------------------------|
a|------------------------------------|
e|------------------------------------|

RIFF 2

e|---------------------------------|
b|---0h1h2-0-----------------------|
g|------------2-1-2-1-0------------|
d|-----------------------3b---0----|
a|---------------------------------|
e|---------------------------------|



Chords

Ab    -4--       Bb   -1--
      -4--            -3--
      -6--	      -3--
      -5--            -3--
      -5--            -1--
      -4--            ----


Corb Lund Band Tabs & Chords



Corb Lund Band Tabs, Tablatures, Chords, Lyrics

Buy Corb Lund Band CD
Corb Lund Band
Buy Corb Lund Band CD

  1. Corb Lund Band - (gonna) Shine Up My Boots Tabs
  2. Corb Lund Band - Counterfeiter’s Blues Chords
  3. Corb Lund Band - Daughter Don't You Marry Tabs
  4. Corb Lund Band - Devils Best Dress Chords
  5. Corb Lund Band - Hurtin' Albertan 2nd Guitar Tabs
  6. Corb Lund Band - I Wanna Be In The Cavalry Chords
  7. Corb Lund Band - It's Time To Switch To Whiskey Chords
  8. Corb Lund Band - Roughest Neck Around Chords
  9. Corb Lund Band - She Won't Come To Me Chords
  10. Corb Lund Band - Shine Up My Boots Chords
  11. Corb Lund Band - Short Native Grasses (prairies Of Alberta) Chords
  12. Corb Lund Band - The Truck Got Stuck Tabs
  13. Corb Lund Band - The Truck Got Stuck 2 Tabs



cowboylyrics.com
All lyrics are property and copyright of their owners. All lyrics provided for educational purposes only.