Corb Lund Band, (gonna) Shine Up My Boots Tabs, Chords, Lyrics

Corb Lund Band, (gonna) Shine Up My Boots Tabs, Chords

 SITE MENU
 Request Tabs
 Add/Correct Tabs
 DMCA Policy
 Country Sheet Music
0

BROWSE LYRICS AND TABS BY ARTIST/BAND NAME: SEARCH HERE:
A B C D E F G H I J K L M N O P Q R S T U V W X Y Z #
 

Corb Lund Band - (gonna) Shine Up My Boots (Tabs)


Corb Lund Band CD
Corb Lund Band Sheet music
Corb Lund Band Posters
Artist: Corb Lund Band

Fairly simple, 2 chords, just alternate between C and G.  
You can play C like this with pinkie on the E string for the alternating bass line.

e|---0-
B|---1-
G|---0-
D|---2-
A|---3-
E|---3-

(intro)  C

          C      
I'm gonna shine up my boots
          G
I'm gonna go into town

I'm gonna scrape up twenty dollars
 	  	        C
I'm gonna throw it around

          C
I'm gonna buy me a dance
 	      G
First lovely lady that I see

And when our dance is through
 	  	  	  C
I'll say "Will you marry me?"


I'm gonna shine up my boots
I'm gonna go into town
I'm gonna scrape up twenty dollars
I'm gonna throw it around


I'm gonna find me a game
Of hold 'em if I can
And fold 'em all night long
Till I got me a hand


I'm gonna buy us a ranch
With a palomino herd
And I won't mean no harm, babe
And I won't say a word


When Misery comes to call
I'll give to him my life
I'll set with him awhile
And share my horse, my home, my wife


(instrumental) listen to the song for the exact timing
e|--------|-----------------|-------------------|
B|--5-6-7-|8--8-5--10--8-8--|/12--12-11-10---11-|
G|--5-7-8-|9--9-5--10--9-9--|/12--12-11-10---11-|
D|--------|-----------------|-------------------|
A|--------|-----------------|-------------------|
E|--------|-----------------|-------------------|

e|--------------------|--------------|
B|12--12-11-10--10-10-|8-8-8-6--5----|
G|12--12-11-10--10-10-|9-9-9-7--5----|
D|--------------------|--------------|
A|--------------------|--------------|
E|--------------------|--------------|


I'm gonna shine up my boots
I'm gonna go into town
I'm gonna scrape up twenty dollars
I'm gonna throw it around


I'm gonna buy me a dance
First lovely lady that I see
And when our dance is through
I'll say "Will you marry me?"

 	   C
I'm gonna shine up my boots
 	   G
I'm gonna go into town
I'm gonna scrape up twenty dollars
          G (hold and let ring)
But I'll probly just drink it down

(ending)   (or this I can't figure out which sounds better)
e|--------8-----||--------------||
B|--1/----8-----||--1/---11-----||
G|--------9-----||-------12-----||
D|-------10-----||-------14-----||
A|-------10-----||-------15-----||
E|--------------||--------------||

 


Corb Lund Band Tabs & Chords



Corb Lund Band Tabs, Tablatures, Chords, Lyrics

Buy Corb Lund Band CD
Corb Lund Band
Buy Corb Lund Band CD

  1. Corb Lund Band - (gonna) Shine Up My Boots Tabs
  2. Corb Lund Band - Counterfeiter’s Blues Chords
  3. Corb Lund Band - Daughter Don't You Marry Tabs
  4. Corb Lund Band - Devils Best Dress Chords
  5. Corb Lund Band - Hurtin' Albertan 2nd Guitar Tabs
  6. Corb Lund Band - I Wanna Be In The Cavalry Chords
  7. Corb Lund Band - It's Time To Switch To Whiskey Chords
  8. Corb Lund Band - Roughest Neck Around Chords
  9. Corb Lund Band - She Won't Come To Me Chords
  10. Corb Lund Band - Shine Up My Boots Chords
  11. Corb Lund Band - Short Native Grasses (prairies Of Alberta) Chords
  12. Corb Lund Band - The Truck Got Stuck Tabs
  13. Corb Lund Band - The Truck Got Stuck 2 Tabs



cowboylyrics.com
All lyrics are property and copyright of their owners. All lyrics provided for educational purposes only.