, Hurtin' Albertan 2nd Guitar Tabs, Chords, Lyrics

, Hurtin' Albertan 2nd Guitar Tabs, Chords

 SITE MENU
 Request Tabs
 Add/Correct Tabs
 DMCA Policy
 Country Sheet Music
0

BROWSE LYRICS AND TABS BY ARTIST/BAND NAME: SEARCH HERE:
A B C D E F G H I J K L M N O P Q R S T U V W X Y Z #
 

- Hurtin' Albertan 2nd Guitar (Tabs)


CD
 Sheet music
Posters
Hurtin' Albertan

Heres the 2nd guitar part


INTRO

|---------------------------------------------------------0--|
|---------------------------------------------------------0--|
|---------------------------------------------------------1--|
|---------------------------------------------------------2--|
|----------------------------------0-2-0---2/5--4--2------2--|
|-0-0-0-0-0-0-0-0-0-0-0-0-0-2/3---------------------3b-------|



1.E
2.Riff 1
a dually diesel pullin hard with a horse trailer in tow


montana side of sweet grass and i'm headed home


1.A
2.Riff 2
trophy buckles and whiskey bottles and a worn out saddle horn


1.E
2.Riff 1
bareback riders and teamropers, huskin taber corn

1.B
2.Riff 3
The roads get better every time i cross north of forty nine

         1.E
	 2.Riff 1 					Bass walk 
well i tip my hat and it's good to be back across the medicine line

CHORUS

A
hurtin albertan with nothing more to lose

E
too much oil money, not enough booze

A
east of the rockies and west of the rest

E7
do my best to do my damnedest and thatís just about all I guess

INTRO


C.B. TALK
D    C


them windy b.c. mountain passes finally flatten out
hairpin turns and pst got my heart up in my throat
itís hairy haulin horses up across the great divide
and them wild chilcotin buckaroos, they sure know how to ride
the roads get better every time i cross that british columbia line
i tip my hat and it's good to back across the kickin horse line

well saskabush is pretty, yup she's pretty flat
and lord knows i'm a prairie boy so Iím pretty used to that
but farmers facin off with gophers, man it ainít the same
as bein home at the saddledome for the oilers at the flames
the roads get better every time i cross that saskatchewan line
i tip my hat and it's good to be back on mountain standard time




2nd Guitar parts				

Riff 1						Base Walk

|---------------------|                         |-------------|
|---------------------|                         |----------2--|
|-9-9-99---7--/--9--9-|                         |----------2--|
|-9-9-99---7--/--9--9-|                         |----------2--|
|---------------------|                         |----------0--|
|---------------------|                         |--0--2--3----|

Riff 2

|-------------------|
|-------------------|
|-2-2--22--0---2-2--|
|-2-2--22--0---2-2--|
|-------------------|
|-------------------|

Riff 3

|--------------------|
|--------------------|
|-4-4--44--2--/---4--|
|-4-4--44--2--/---4--|
|--------------------|
|--------------------|


Corb Lund Band Tabs & Chords



Corb Lund Band Tabs, Tablatures, Chords, Lyrics

Buy Corb Lund Band CD
Corb Lund Band
Buy Corb Lund Band CD

  1. Corb Lund Band - (gonna) Shine Up My Boots Tabs
  2. Corb Lund Band - Counterfeiterís Blues Chords
  3. Corb Lund Band - Daughter Don't You Marry Tabs
  4. Corb Lund Band - Devils Best Dress Chords
  5. Corb Lund Band - Hurtin' Albertan 2nd Guitar Tabs
  6. Corb Lund Band - I Wanna Be In The Cavalry Chords
  7. Corb Lund Band - It's Time To Switch To Whiskey Chords
  8. Corb Lund Band - Roughest Neck Around Chords
  9. Corb Lund Band - She Won't Come To Me Chords
  10. Corb Lund Band - Shine Up My Boots Chords
  11. Corb Lund Band - Short Native Grasses (prairies Of Alberta) Chords
  12. Corb Lund Band - The Truck Got Stuck Tabs
  13. Corb Lund Band - The Truck Got Stuck 2 Tabs



cowboylyrics.com
All lyrics are property and copyright of their owners. All lyrics provided for educational purposes only.