Crowtown, About You Tabs, Chords, Lyrics

Crowtown, About You Tabs, Chords

 SITE MENU
 Request Tabs
 Add/Correct Tabs
 DMCA Policy
 Country Sheet Music
0

BROWSE LYRICS AND TABS BY ARTIST/BAND NAME: SEARCH HERE:
A B C D E F G H I J K L M N O P Q R S T U V W X Y Z #
 

Crowtown - About You (Chords)


Crowtown CD
Crowtown Sheet music
Crowtown Posters
About You
By Crowtown
3/5/04
rmofle at satx.rr.com


Capo I

e---------------------------------------------
B---------------------------------------------
G--0-2-2h4-4-4-4-2-0---0--0-2-2-2-0s2-0-------
D-0-----------------0h2-----------------2-0---
A---------------------------------------------
E---------------------------------------------

e---------------------------------------------
B---------------------------------------------
G--0-2-2h4-4-4-4-2-0---0--0-2-2-2-0s2-0--0h2--
D-0-----------------0h2-----------------2-----
A---------------------------------------------
E---------------------------------------------


        G                         C 
You can light up a room with your presence
    D                     G
And tame anyone with that smile
     G                      Em
Your eyes take me closer to heaven
     D
Than anything else in my life
    G                          C
I believe we have something in common
 D                         G
I can't wait to see if I'm right
    G                          Em 
I'm willing to go where you're going
D 
Hoping to be by your side



Chorus
            G                  C
There's not much I know, about you
    D                          G
But I love everything that you do
G                            C
Each and every day something new
      D                G
Small glimpses of your inner thoughts
          D            G
Makes the image of the sweetest song


Intro

     G                   C
Your spirit can cure any feeling
     D             G
That color mine or blue
    G                     Em
I'm grateful that you are giving

Your spirit can cure any feeling
That colour mine all blue
I`m grateful that you are giving



Chorus:



Chorus
 


Crowtown Tabs & Chords



Crowtown Tabs, Tablatures, Chords, Lyrics

Buy Crowtown CD
Crowtown
Buy Crowtown CD

  1. Crowtown - About You Chords



cowboylyrics.com
All lyrics are property and copyright of their owners. All lyrics provided for educational purposes only.