Dan Brodie & the Broken Arrows, Take A Bullet Tabs, Chords, Lyrics

Dan Brodie & the Broken Arrows, Take A Bullet Tabs, Chords

 SITE MENU
 Request Tabs
 Add/Correct Tabs
 DMCA Policy
 Country Sheet Music
0

BROWSE LYRICS AND TABS BY ARTIST/BAND NAME: SEARCH HERE:
A B C D E F G H I J K L M N O P Q R S T U V W X Y Z #
 

Dan Brodie & the Broken Arrows - Take A Bullet (Chords)


Dan Brodie & the Broken Arrows CD
Dan Brodie & the Broken Arrows Sheet music
Dan Brodie & the Broken Arrows Posters
---------------------------------------------------------
 	 take a bullet - dan brodie and the broken arrows
---------------------------------------------------------


 

 ("i'll take a bullet for ya baby....")
       E                     A
e|-----------------------------------------------|
B|-----------------------------------------------|
G|-----------------------------------------------|
D|---------------------22222222-22222222---------|
A|-22222222-22222222---00330033-00330033---------|
E|-00330033-00330033-----------------------------|
             ("not tonight")
     F#       G   F#       E       E7
e|------------------------------------0~---------------------|
B|------------------------------------3~---------------------|
G|------------------------------------------and start again--|
D|--44444444-55554444------2~--------------------------------|
A|--44444444-55554444------2~------2-------------------------|
E|--22222222-33332222------0~------0-------------------------|    


repeat same thing.

then       ("some may say i'm crazy.....")
    A                E                  F#
e|------------------------------------------------------|
B|------------------------------------------------------|
G|------------------------------------------------------|
D|-2222222222222222--------------------4444444444444444-|
A|-0033003300330033-2222222222222222---4444444444444444-|
E|------------------0033003300330033---2222222222222222-|

cont.
   B 
e|----77----77----77----77-----------------|
B|----77----77----77----77-----------------|
G|----88----88----88----88-----------------|
D|-99-99-99-99-99-99-99-99------back to E--|
A|-99----99----99----99--------------------|
E|-77----77----77----77--------------------|

if i remember correctly the lead break is the verse progression.
the rest is pretty basic
=================================================================
 


Dan Brodie & the Broken Arrows Tabs & Chords



Dan Brodie & the Broken Arrows Tabs, Tablatures, Chords, Lyrics

Buy Dan Brodie & the Broken Arrows CD
Dan Brodie & the Broken Arrows
Buy Dan Brodie & the Broken Arrows CD

  1. Dan Brodie & the Broken Arrows - Take A Bullet Chords



cowboylyrics.com
All lyrics are property and copyright of their owners. All lyrics provided for educational purposes only.