Deliverance Soundtrack, Dueling Banjos (lmofle Version) Tabs, Chords, Lyrics

Deliverance Soundtrack, Dueling Banjos (lmofle Version) Tabs, Chords

 SITE MENU
 Request Tabs
 Add/Correct Tabs
 DMCA Policy
 Country Sheet Music
0

BROWSE LYRICS AND TABS BY ARTIST/BAND NAME: SEARCH HERE:
A B C D E F G H I J K L M N O P Q R S T U V W X Y Z #
 

Deliverance Soundtrack - Dueling Banjos (lmofle Version) (Chords)


Deliverance Soundtrack CD
Deliverance Soundtrack Sheet music
Deliverance Soundtrack Posters
Beginning is strumming chords…listen to song for timing. To make a banjo sound
, pick your notes right in front of the bridge. It will give you a tinny sound!
             
           Do this strum 4X
  G          G  C  G     Guitar              Banjo               Guitar
E------3---3-3—-0--3---|-------------------|-------------------|-------------------|
B-----0---0--0—-1--0---|-0-1-3-0-1---0-----|-0-1-3-0-1---0-----|-0-1h3-0-1---0-----|
G----0---0---0—-0--0---|-----------2---0-2-|-----------2---0-2-|-----------2---0-2-|
D---0--------0—-2--0---|-------------------|-------------------|-------------------|
A--2---------2—-3--2---|-------------------|-------------------|-------------------|
E-3----------3-----3---|-------------------|-------------------|-------------------|

  Banjo               Guitar             Banjo             Guitar          Banjo
E-------------------|------------------|-----------------|---------------|-----------------|
B-0-1-3-0-1---0-----|------------------|-------0-1-3-1-0-|---------------|-------0-1-3-1-0-|
G-----------2---0-2-|------------------|-000-2-----------|---------------|-000-2-----------|
D-------------------|------------0-----|-----------------|---------0-----|-----------------|
A-------------------|------0-2-3---3-2-|-----------------|----0-2-3--3-2-|-----------------|
E-------------------|--333-------------|-----------------|-333-----------|-----------------|

  Guitar
E-----------------|-------0-1-3-1-0-|-----------------|-----------------|-----0-2-3-5-3-2-|
B-----------------|-111-3-----------|-----------------|-------0-1-3-1-0-|-333-------------|
G-----------0-----|-----------------|-----------------|-000-2-----------|-----------------|
D-----0-2-3--3-2--|-----------------|-----------0-----|-----------------|-----------------|
A-333-------------|-----------------|-----0-2-3---3-2-|-----------------|-----------------|
E-----------------|-----------------|-333-------------|-----------------|-----------------|


Guitar       Banjo     Guitar     Banjo
  G  C  G    G  C  G   G  C  G
E-3--0--3--|-3—-0—-3-|-3—-0—-3-|-3—-0—-3-|
B-0--1--0--|-0—-1—-0-|-0—-1—-0-|-0—-1—-0-|
G-0--0—-0--|-0—-0—-0-|-0—-0—-0-|-0—-0—-0-|
D-0--2--0--|-0—-2—-0-|-0—-2—-0-|-0—-2—-0-|
A-2--3--2--|-2—-3—-2-|-2—-3—-2-|-2—-3—-2-|
E-3-----3--|-3-----3-|-3-----3-|-3-----3-|

 Guitar              Banjo               Guitar
E-------------------|-------------------|-------------------|
B-0-1-3-0-1---0-----|-0-1-3-0-1---0-----|-0-1h3-0-1---0-----|
G-----------2---0-2-|-----------2---0-2-|-----------2---0-2-|
D-------------------|-------------------|-------------------|
A-------------------|-------------------|-------------------|
E-------------------|-------------------|-------------------|

  Guitar            Banjo             C  G      D D D D                 G    
E-----------------|-----------|-------0--0------2-2-2-2-|---------------3--|
B---------0---0---|-------0---|-------1--0------3-3-3-3-|---------------0--|
G---0-0-2---0---2-|-0-0-2---0-|-------0--0------2-2-2-2-|---------------0--|
D-0---------------|-----------|-------2--0-2-0--0---0---|---------0-2-0-0--|
A-----------------|-----------|---0-2-3--2--------0---0-|---0h1-2-------2--|
E-----------------|-----------|-3--------3--------------|-3-------------3--|

        C  G      D D D D                 G    
E-------0--3------2-2-2-2-|---------------3--|
B-------1--0------3-3-3-3-|---------------0--|
G-------0--0------2-2-2-2-|---------------0--|
D-------2--0-2-0—-0---0---|---------0-2-0-0--|
A---0-2-3--2--------0---0-|---0h1-2-------2--|
E-3--------3--------------|-3-------------3--|


   Guitar              Banjo               Guitar
E--------------------|-------------------|-------------------|
B--0-1-3-0-1---0-----|-0-1-3-0-1---0-----|-0-1h3-0-1---0-----|
G------------2---0-2-|-----------2---0-2-|-----------2---0-2-|
D--------------------|-------------------|-------------------|
A--------------------|-------------------|-------------------|
E--------------------|-------------------|-------------------|

  Guitar            Banjo             C  G      D D D D                 G    
E-----------------|-----------|-------0--0------2-2-2-2-|---------------3--|
B---------0---0---|-------0---|-------1--0------3-3-3-3-|---------------0--|
G---0-0-2---0---2-|-0-0-2---0-|-------0--0------2-2-2-2-|---------------0--|
D-0---------------|-----------|-------2--0-2-0--0---0---|---------0-2-0-0--|
A-----------------|-----------|---0-2-3--2--------0---0-|---0h1-2-------2--|
E-----------------|-----------|-3--------3--------------|-3-------------3--|

        C  G      D D D D                 G    G C G   G C G   G C G   G C G
E-------0--3------2-2-2-2-|---------------3--|-3-0-3-|-3-0-3-|-3-0-3-|-3-0-3-|
B-------1--0------3-3-3-3-|---------------0--|-0-1-0-|-0-1-0-|-0-1-0-|-0-1-0-|
G-------0--0------2-2-2-2-|---------------0--|-0-0-0-|-0-0-0-|-0-0-0-|-0-0-0-|
D-------2--0-2-0—-0---0---|---------0-2-0-0--|-0-2-0-|-0-2-0-|-0-2-0-|-0-2-0-|
A---0-2-3--2--------0---0-|---0h1-2-------2--|-2-3-2-|-2-3-2-|-2-3-2-|-2-3-2-|
E-3--------3--------------|-3-------------3--|-3---3-|-3---3-|-3---3-|-3---3-|

E------------2-3-|--x-x-33-11-00-----3--3-|
B----0-0-3-0-----|---------------3-0-2--0-|
G--0-------------|-------------------3--0-|
D----------------|-------------------0--0-|
A----------------|----------------------2-|
E----------------|----------------------3-|



 


Deliverance Soundtrack Tabs & Chords



Deliverance Soundtrack Tabs, Tablatures, Chords, Lyrics

Buy Deliverance Soundtrack CD
Deliverance Soundtrack
Buy Deliverance Soundtrack CD

  1. Deliverance Soundtrack - Dueling Banjos (lmofle Version) Chords



cowboylyrics.com
All lyrics are property and copyright of their owners. All lyrics provided for educational purposes only.