Dirty River Boys, Raise Some Hell (intro) Tabs, Chords, Lyrics

Dirty River Boys, Raise Some Hell (intro) Tabs, Chords

 SITE MENU
 Request Tabs
 Add/Correct Tabs
 DMCA Policy
 Country Sheet Music
0

BROWSE LYRICS AND TABS BY ARTIST/BAND NAME: SEARCH HERE:
A B C D E F G H I J K L M N O P Q R S T U V W X Y Z #
 

Dirty River Boys - Raise Some Hell (intro) (Tabs)


Dirty River Boys CD
Dirty River Boys Sheet music
Dirty River Boys Posters
e|-----------------------------------------------------|
B|-----------------------------------------------------|
G|-----------------------------------------------------|
D|---------0-2p0-------0-------------0-2p0---2p0---0---|
A|---0-0h2-------2-0h2---2p0-----0h2-------2-----2-----|
E|---------------------------3-------------------------|


e|-----------------------------------------------------|
B|-----------------------------------------------------|
G|-------------------------------2p0-0-----------------|
D|---------0-2p0-------0---------------2p0-0-----------|
A|---0-0h2-------2-0h2---2p0-----------------2p0-0-----|
E|---------------------------3---------------------3---|


Dirty River Boys Tabs & Chords



Dirty River Boys Tabs, Tablatures, Chords, Lyrics

Buy Dirty River Boys CD
Dirty River Boys
Buy Dirty River Boys CD

  1. Dirty River Boys - Carnival Lights Chords
  2. Dirty River Boys - Draw Chords
  3. Dirty River Boys - My Son Chords
  4. Dirty River Boys - Raise Some Hell Chords
  5. Dirty River Boys - Raise Some Hell (intro) Tabs
  6. Dirty River Boys - She Chords
  7. Dirty River Boys - Six Riders Chords
  8. Dirty River Boys - Union Painter Chords



cowboylyrics.com
All lyrics are property and copyright of their owners. All lyrics provided for educational purposes only.