, That's Allright Mama (intro & 1st Solo) Tabs, Chords, Lyrics

, That's Allright Mama (intro & 1st Solo) Tabs, Chords

 SITE MENU
 Request Tabs
 Add/Correct Tabs
 DMCA Policy
 Country Sheet Music
0

BROWSE LYRICS AND TABS BY ARTIST/BAND NAME: SEARCH HERE:
A B C D E F G H I J K L M N O P Q R S T U V W X Y Z #
 

- That's Allright Mama (intro & 1st Solo) (Tabs)


CD
 Sheet music
Posters
Don Kelly Band:That's Allright Mama (Intro & 1st Solo)


Note:Due to the length of these solos I will be posting in
two parts


Intro


Play three times
E-------------------------------------------------------------
B-------------------------------------------------------------
G-0----------5h6---6-----6h7---7-----7---5h6---6---9\7p5------
D------------5-----5-----5-----5-----5---5-----5---------7-5--
A---------0------0---0-0-----0---0-0---0-----0---0------------
E---3b(4)-----------------------------------------------------


E-----------
B-----------
G-----------
D-7-5-------
A-----3h4-0-
E-----------

 Then
E------------------------------------------
B---------------------------8--------------
G-5h6---6-----6h7---7-----7-7b(9)-5b(6)----
D-5-----5-----5-----5-----5-------------7--
A-----0---0-0-----0---0-0------------------
E------------------------------------------



Solo #1
E-------------------------------------------------5--------------
B-----------------2-3p2---2-------------------5-7---8-7p5---7---5
G-------------2-4-------4---4-3-2---2---2-4/6-------------8---8--
D---------2-4---------------------4---4--------------------------
A-0-2h3h4--------------------------------------------------------
E----------------------------------------------------------------


E----------------------------------------------------------------
B-7p5---5---5-8p5---5---5-8p5---5---------5----------------------
G-----8---8-------8---8-------8---8\7p0-8----8-7p5---5h6---5-----
D--------------------------------------------------7-----7---7-6-
A----------------------------------------------------------------
E----------------------------------------------------------------


E-----------------------------------------------------------------
B------------------------------------7p0-8p0-7h8p7---7------------
G---0-----------7-----7-----7-9b(11)---------------9---9-8-7---7\5
D-5---------7-9---9-7---9-7----------------------------------9----
A-----7h8h9-------------------------------------------------------
E-----------------------------------------------------------------


E---------7-----7-------------------------------------------------
B-5-7b(9)---(9)---(9)r7-5-7-7p5---5-------5-5h8p5---5-8-5---5-----
G-------------------------------7---7b(9)---------8-------8---8-7-
D-----------------------------------------------------------------
A-----------------------------------------------------------------
E-----------------------------------------------------------------


E-----------------------------------------------------------------
B-----5----------5------------------------------------------------
G-0-8---8-7-0--8---8-7-5---7---5h6-------------------2------------
D------------------------7---7-----7-5---5---0------------------2-
A--------------------------------------7---7---3h4-0----0-2h3h4---
E-----------------------------------------------------------------


E-----------------------------------------------------------------
B---------2-----2-----2-----2-----2-----2-----2-------------------
G---2-----2-----2-----2-----2-----2-----2-----2--4b(6)-4b(6)r4-2--
D-4---4-2---4-2---4-2---4-2---4-2---4-2---4-2--------------------4
A-----------------------------------------------------------------
E-----------------------------------------------------------------


E--------------------------------------------------------------------
B--------------------------------------------------------5-5-5-------
G-4-2p0---2p0---2p0---0---------------------------2------5-5-5-------
D-------4-----4-----4---4-2p0---2p0---1p0---0-------4-2--4-4-4-5/17\5
A-----------------------------4-----3-----3---3h4--------5-5-5-------
E--------------------------------------------------------------------


E-------0-------7-7------------------------------------------------
B-5-5-5---7b(9)-----(9)r7-5-7-7p5---5-------5-8p5---5-8p5---5------
G-5-5-5---------------------------7---7b(9)-------8-------8---8-7p0
D-4-4-4------------------------------------------------------------
A-5-5-5------------------------------------------------------------
E------------------------------------------------------------------


E-------------------------------------------------
B---5---------5-----------------------------------
G-8---8-7-0-8---8-7-5---7---5-6-------------------
D---------------------7---7-----7-5---5---0-------
A-----------------------------------7---7---3h4-0-
E-------------------------------------------------



Don Kelly Band (w/Johnny Hiland) Tabs & Chords



Don Kelly Band (w/Johnny Hiland) Tabs, Tablatures, Chords, Lyrics

Buy Don Kelly Band (w/Johnny Hiland) CD
Don Kelly Band (w/Johnny Hiland)
Buy Don Kelly Band (w/Johnny Hiland) CD

  1. Don Kelly Band (w/Johnny Hiland) - That's Allright Mama (intro & 1st Solo) Tabs



cowboylyrics.com
All lyrics are property and copyright of their owners. All lyrics provided for educational purposes only.