, Chaparral Tabs, Chords, Lyrics

, Chaparral Tabs, Chords

 SITE MENU
 Request Tabs
 Add/Correct Tabs
 DMCA Policy
 Country Sheet Music
0

BROWSE LYRICS AND TABS BY ARTIST/BAND NAME: SEARCH HERE:
A B C D E F G H I J K L M N O P Q R S T U V W X Y Z #
 

- Chaparral (Tabs)


CD
 Sheet music
Posters
CHAPARRAL



the link below.  Some people requested the tab to it so here it is.  Don also cut a version of it in 
the studio which is a bit longer and has some AWESOME licks in it.  I plan on tabbing it in the 
future if I can work it all out.






p  pull-off

h  hammer-on

/  slide

(BR)  bend (B), hold (), and release (R)

v  upstroke

^  downstroke







Key: C / Tune down 1/2 step / Play: D

INTRO:

    D                         Em                       A                             D   C      A7
Eb------3p2--0----5--2--0-------------0--3-----2--0--0-------------------------------2-2-0-0-0--0-0-0-
Bb--------------3-----------3---------------0--0--0--3-----------0--2--3-3--2--0--2--3-3-1-1-1--2-2-2-
F-----2-------------------2--------0-------------------------0--------0-0--0--0--0--2-2-0-0-0--0-0-0-
C--0-----------------------------2-------------------------2------------------------0-0-2-2-2--2-2-2-
Ab-------------------------------------------------------0-------------------------------3-3-3--------
Eb-----------------------------0----------------------------------------------------------------------
                                                                         v v  v  v  v  ^ v ^ v ^  ^ v ^ 

PART A:

      D                         Em                        A                             D   C      A7
Eb--------3p2--0---5-2-0-----------------0---2/3-3-2-0--------------------------------2-2-0-0-0--0-0-0-
Bb---------------3----------2h3--------0---------------3----------0--2--3-3--2--0--2--3-3-1-1-1--2-2-2-
F-------2----------------2-----------0------------------------0--------0-0--0--0--0--2-2-0-0-0--0-0-0-
C----0-----------------------------2-----------------------2-------------------------0-0-2-2-2--2-2-2-
Ab-0------------------------------2----------------------0--------------------------------3-3-3--------
Eb------------------------------0----------------------------------------------------------------------
							       v v  v  v  v  ^ v ^ v ^  ^ v ^


      D                      Em                         A                            D   C      A7  D
Eb--------3p2--0---5-2-0--------------0-2/3--3--2--0--------------------0-0-0-0-0-0--2-2-0-0-0--0-0-2-
Bb---------------3--------2h3-------0-----------------3-----------0--2--3-3-3-3-3-2--3-3-1-1-1--2-2-3-
F-------2---------------2----------0--------------------------0--------0-0-0-0-0-0--2-2-0-0-0--0-0-2-
C----0---------------------------2-------------------------2------------------------0-0-2-2-2--2-2-0-
Ab-0----------------------------2------------------------0-------------------------------3-3-3--------
Eb----------------------------0-----------------------------------------------------------------------
								       v v v v v v  ^ v ^ v ^  ^ v ^ 


PART B:

   A                           D                       A                                 D
Eb----------------------------------------------------------------------------------------------------
Bb-------------------------------------------------------------2--3--5----7--5--------------7--8--10--
F------------------------------------------2-------1--2----4-------------------7--6--7--9------------
C-----------0--2-4--2--0---2--0--2-0-4--0----2--4----------------------------------------------------
Ab--0--2--4--------------4----------------------------------------------------------------------------
Eb----------------------------------------------------------------------------------------------------


    F                              Bm   
						     (BR)
Eb---------6--7--9--10--9--7--6--9--7----9--10--12----12-12-12-12-12-10---
Bb--7--9------------------------------------------------------------------
F------------------------------------------------------------------------
C------------------------------------------------------------------------
Ab------------------------------------------------------------------------
Eb------------------------------------------------------------------------


   E                                 A
Eb-12---12-10-----10-9-----9/7-----7/5--------5/3-------3/2-------2-0-----
Bb----9---------9--------9-------9----------5---------3---------2------2--
F----------------------------------------6---------4---------2-----------
C------------------------------------------------------------------------
Ab------------------------------------------------------------------------
Eb------------------------------------------------------------------------


PART A:

      D                                 Em                            
Eb----------3p2--0-----5--2--0---------------------0---2/3--3--2--0---
Bb------------------3--------------2h3-----------0-------------------3
F-------2----------------------2--------------0-----------------------
C----0--------------------------------------2-------------------------
Ab-0---------------------------------------2--------------------------
Eb---------------------------------------0----------------------------
									

 A                             D   C      A7
Eb-------------------------------2-2-0-0-0--0-0-0-
Bb-----------0--2--3-3--2--0--2--3-3-1-1-1--2-2-2-
F-------0--------0-0--0--0--0--2-2-0-0-0--0-0-0-
C----2-------------------------0-0-2-2-2--2-2-2-
Ab--0--------------------------------3-3-3--------
Eb------------------------------------------------
	       v v  v  v  v  ^ v ^ v ^  ^ v ^  
      D                                 Em                         
Eb----------3p2--0-----5--2--0---------------------0---2/3--3--2--0
Bb------------------3--------------2h3-----------0-----------------
F-------2----------------------2--------------0--------------------
C----0--------------------------------------2----------------------
Ab-0---------------------------------------2-----------------------
Eb---------------------------------------0-------------------------
								
    A                             D   C      A7  D
Eb----------------------------------2-2-0-0-0--0-0-2-
Bb--3-----------0--2--3-3--2--0--2--3-3-1-1-1--2-2-3-
F-----------0--------0-0--0--0--0--2-2-0-0-0--0-0-2-
C--------2-------------------------0-0-2-2-2--2-2-0-
Ab-----0--------------------------------3-3-3--------
Eb---------------------------------------------------
		       v v  v  v  v  ^ v ^ v ^  ^ v ^  

OUTRO:
    D   C      A7  D
Eb--2-2-0-0-0--0-0-2-
Bb--3-3-1-1-1--2-2-3-
F--2-2-0-0-0--0-0-2-
C--0-0-2-2-2--2-2-0-
Ab------3-3-3--------
Eb-------------------
    ^ v ^ v ^  ^ v ^ 



Don Rich Tabs & Chords



Don Rich Tabs, Tablatures, Chords, Lyrics

Buy Don Rich CD
Don Rich
Buy Don Rich CD

  1. Don Rich - Chaparral Tabs
  2. Don Rich - I'm Coming Back Home To Stay Chords
  3. Don Rich - I'm Layin' It On The Line Chords
  4. Don Rich - Love's Gonna Come A Knockin' Chords
  5. Don Rich - My Baby's Comin' Home Chords
  6. Don Rich - Out Of My Mind Chords



cowboylyrics.com
All lyrics are property and copyright of their owners. All lyrics provided for educational purposes only.