Jerry Douglas, Abilene Gal Tabs, Chords, Lyrics

Jerry Douglas, Abilene Gal Tabs, Chords

 SITE MENU
 Request Tabs
 Add/Correct Tabs
 DMCA Policy
 Country Sheet Music
0

BROWSE LYRICS AND TABS BY ARTIST/BAND NAME: SEARCH HERE:
A B C D E F G H I J K L M N O P Q R S T U V W X Y Z #
 

Jerry Douglas - Abilene Gal (Chords)


Jerry Douglas CD
Jerry Douglas Sheet music
Jerry Douglas Posters
Tuning: GBDGBD

The song consists of 4 phrases.  Each phrase is played 4 times before
going on to the next phrase.


Intro

---0----------0------------0-------<12>-------------|
--/3\--------/5\----------/8\------<12>-------------|
-------/4----------/4----------/4--<12>-------------|
-----------------------------------<12>------ ------|
----------------------------------------------------|
-0---0----0-----0------0-----0----------------------|


phrase 1

-------0-2-0---------------------------------|
---------------0-----0-----------------------|
-----0-----------2-0---2-0-------------------|
-0-2-----------------------2-0---------------|
---------------------------------------------|
---------------------------------------------|


-------0-2-0---------------------------------|
-------------0-------------------------------|
-----0---------2-0---------------------------|
-0-2---------------2-0-----------------------|
-----------------------0---------------------|
-----------------------------2-0-------------|



phrase 2

------0------0------0-------0------------------|
-----------------------------------------------|
-----------------------------------------------|
----0------0------0------0---------------------|
-/3------3-^?---3------3-----------------------|
------------------------------/4\--------------|


---------------------------------------------|
---------------------------------------------|
-------0-2-0---------------------------------|
-----------0-------2-0-----------------------|
-----0-----------------0-0-------------------|
-0-2-----------------------2-0---------------|


phrase 3

---------------------------------------------|
-0--------0--------0-------------------------|
------0-2------0-2---0-2-0-------------------|
---------------------------2-0---------------|
---------------------------------------------|
---------------------------------------------|


---------------------------------------------|
-----0-----0---------------------------------|
-0-2---2-0---2-0-----0-----------------------|
-----------------2-0---2-0-------------------|
---------------------------0-----------------|
-----------------------------2----0----------|


phrase 4

----0-0----0-0----0-0---2-0------------------|
-/3------3------3----------------------------|
------------------------------0-/4-----------|
---------------------------------------------|
---------------------------------------------|
---------------------------------------------|

-------0-7-5-----5---0-----------------------|
-----0-------------5---0---------------------|
-0-2---------------------2-0-0---------------|
---------------------------------------------|
---------------------------------------------|
---------------------------------------------|


Douglas Jerry Tabs & ChordsDouglas Jerry Lyrics



Douglas Jerry Tabs, Tablatures, Chords, Lyrics

Buy Douglas Jerry CD
Douglas Jerry
Buy Douglas Jerry CD

  1. Douglas Jerry - Abilene Gal Chords
  2. Douglas Jerry - Like It Is Chords



cowboylyrics.com
All lyrics are property and copyright of their owners. All lyrics provided for educational purposes only.