, Bayou Country Tabs, Chords, Lyrics

, Bayou Country Tabs, Chords

 SITE MENU
 Request Tabs
 Add/Correct Tabs
 DMCA Policy
 Country Sheet Music
0

BROWSE LYRICS AND TABS BY ARTIST/BAND NAME: SEARCH HERE:
A B C D E F G H I J K L M N O P Q R S T U V W X Y Z #
 

- Bayou Country (Tabs)


CD
 Sheet music
Posters
This is the fiddle solo me and my dad figured this out.This is my first tab ever so... dont 
hit me with 20,0000000000 questions.

|---------------------------------|
|---0---0----4---0---2----0-------|
|----------------------------5--5-|
|---------------------------------|

|---------------------------------|
|------0---2---4---2---0---0------|
|--4------------------------------|
|---------------------------------|


Dread Clampit Tabs & Chords



Dread Clampit Tabs, Tablatures, Chords, Lyrics

Buy Dread Clampit CD
Dread Clampit
Buy Dread Clampit CD

  1. Dread Clampit - Bayou Country Tabs



cowboylyrics.com
All lyrics are property and copyright of their owners. All lyrics provided for educational purposes only.