, She Cries Tabs, Chords, Lyrics

, She Cries Tabs, Chords

 SITE MENU
 Request Tabs
 Add/Correct Tabs
 DMCA Policy
 Country Sheet Music
0

BROWSE LYRICS AND TABS BY ARTIST/BAND NAME: SEARCH HERE:
A B C D E F G H I J K L M N O P Q R S T U V W X Y Z #
 

- She Cries (Tabs)


CD
 Sheet music
Posters
Artist: East West
Album:The Light in Guineveres Garden
Tuning: Stardard


Intro


G---------------------
D---------------------
A---4---------4-------
E-6---2--2--6---2--2--

verse

G--------------------------
D--------------------------
A-------4-4-4--------------
E-6-6-6-------2-2-2--2-2-2-

(Repeat As Needed)


Chorus

G-------------------------------------------
D-------------------------------------------
A-4-4--4-4-----------------4-4--------------
E-----------4-4--4-4--6-6-------2-2--2-2----

(Repeat As Needed)


East West Tabs & Chords



East West Tabs, Tablatures, Chords, Lyrics

Buy East West CD
East West
Buy East West CD

  1. East West - Closure Tabs
  2. East West - She Cries Tabs



cowboylyrics.com
All lyrics are property and copyright of their owners. All lyrics provided for educational purposes only.