, Rebel Rouser Tabs, Chords, Lyrics

, Rebel Rouser Tabs, Chords

 SITE MENU
 Request Tabs
 Add/Correct Tabs
 DMCA Policy
 Country Sheet Music
0

BROWSE LYRICS AND TABS BY ARTIST/BAND NAME: SEARCH HERE:
A B C D E F G H I J K L M N O P Q R S T U V W X Y Z #
 

- Rebel Rouser (Tabs)


CD
 Sheet music
Posters
  e|----------------------------------|----------------------------------|
  B|----------------------------------|----------------------------------|
  G|----------------------------------|----------------------------------|
  D|----------------------------0-3---|----------------------------------|
  A|---------0-1-3--0--0-1-1--1-----3-|----------0-1-3----0-1-3-3--------|
  E|4---1--1----------1---------------|-4---1--1--------1----------4--1~~|
                                                                 (lower
trem)
   repeat above 2 more times without trem at the end
  e|----------------------------------|----------------------------------|
  B|----------------------------------|----------------------------------|
  G|----------------------------------|----------------------------------|
  D|----------------------------1-4---|----------------------------------|
  A|---------1-2-4--1--1-2-2--2-----4-|----------1-2-4----1-2-4-4--------|
  E|1---2--2----------2---------------|-5---2--2--------2----------5--2--|
  e|----------------------------------|----------------------------------|
  B|----------------------------------|----------------------------------|
  G|----------------------------------|----------------------------------|
  D|----------------------------2-5---|----------------------------------|
  A|---------2-3-5--2--2-3-3--3-----5-|----------2-3-5----2-3-5-5--------|
  E|2---3--3----------3---------------|-6---3--3--------3----------6--3--|
  e|----------------------------------|----------------------------------|
  B|----------------------------------|----------------------------------|
  G|----------------------------------|----------------------------------|
  D|----------------------------3-6---|----------------------------------|
  A|---------3-4-6--3--3-4-4--4-----6-|----------3-4-6----3-4-6-6--------|
  E|3---4--4----------4---------------|-7---4--4--------4----------7--4--|
  e|----------------------------------|----------------------------------|
  B|----------------------------------|----------------------------------|
  G|----------------------------------|----------------------------------|
  D|----------------------------3-6---|----------------------------------|
  A|---------3-4-6--3--3-4-4--4-----6-|----------3-4-6----3-4-6-6--------|
  E|7---4--4----------4---------------|-7---4--4--------4----------7--4--|
  repeat 3x


Eddie Duane Tabs & Chords



Eddie Duane Tabs, Tablatures, Chords, Lyrics

Buy Eddie Duane CD
Eddie Duane
Buy Eddie Duane CD

  1. Eddie Duane - Rebel Rouser Tabs



cowboylyrics.com
All lyrics are property and copyright of their owners. All lyrics provided for educational purposes only.