Eli Young Band, I Call The Tune Tabs, Chords, Lyrics

Eli Young Band, I Call The Tune Tabs, Chords

 SITE MENU
 Request Tabs
 Add/Correct Tabs
 DMCA Policy
 Country Sheet Music
0

BROWSE LYRICS AND TABS BY ARTIST/BAND NAME: SEARCH HERE:
A B C D E F G H I J K L M N O P Q R S T U V W X Y Z #
 

Eli Young Band - I Call The Tune (Tabs)


Eli Young Band CD
Eli Young Band Sheet music
Eli Young Band Posters
Band: Eli Young Band
Tuning: Standard

Not real sure about the pre-chorus, but other than that i think its pretty close.
It's my first tab, so feel free to leave any comments or suggestions

Intro/Verse
e--------------------------------
B--------------------------------
G-----x-3-x-2--------------------    x4
D-x-2-x-3-x-2-------------2------
A-x-2-x-1-x-0-1-0h1p0------------
E-x-0-----------------3p0--------

e-------------------
B-----3-3-----3-3---
G-2-2-2-2-2-2-2-2---
D-2-2-0-0-2-2-0-0---
A-0-0-----0-0-------
E-------------------

e--------------------------------
B--------------------------------
G-----x-3-x-2--------------------
D-x-2-x-3-x-2-------------2------
A-x-2-x-1-x-0-1-0h1p0------------
E-x-0-----------------3p0--------

Pre-chorus
e---------------------------------------
B---------------------------------------
G-----4-------5-------7-------2---------
D---4---4---5---5---7---7---2---2-------
A-2-------3-------5-------0-------------
E---------------------------------------

e---------------------------------------
B---------------------------------------
G-----4-------5-------7----9-9-9-9-9----
D---4---4---5---5---7---7--9-9-9-9-9----
A-2-------3-------5--------7-7-7-7-7----
E---------------------------------------

Chorus
e-----------------------
B-----------3-3---------
G------5-5--2-2--2-2----     x3
D-2-2--5-5--0-0--2-2----
A-2-2--3-3-------0-0----
E-0-0-------------------

e---------------------------------------
B-----------3-3-------------------------
G------5-5--2-2--2-2-2-2----------------
D-2-2--5-5--0-0--2-2-2-2----------------
A-2-2--3-3-------0-0-0-0--0h1p0---------
E-0-0---------------------------3p0-----

Verse
e--------------------------------
B--------------------------------
G-----x-3-x-2--------------------    x2
D-x-2-x-3-x-2-------------2------
A-x-2-x-1-x-0-1-0h1p0------------
E-x-0-----------------3p0--------

e-------------------
B-----3-3-----3-3---
G-2-2-2-2-2-2-2-2---
D-2-2-0-0-2-2-0-0---
A-0-0-----0-0-------
E-------------------

e--------------------------------
B--------------------------------
G-----x-3-x-2--------------------
D-x-2-x-3-x-2-------------2------
A-x-2-x-1-x-0-1-0h1p0------------
E-x-0-----------------3p0--------

Pre-chorus
e---------------------------------------
B---------------------------------------
G-----4-------5-------7-------2---------
D---4---4---5---5---7---7---2---2-------
A-2-------3-------5-------0-------------
E---------------------------------------

e---------------------------------------
B---------------------------------------
G-----4-------5-------7----9-9-9-9-9----
D---4---4---5---5---7---7--9-9-9-9-9----
A-2-------3-------5--------7-7-7-7-7----
E---------------------------------------

Chorus
e-----------------------
B-----------3-3---------
G------5-5--2-2--2-2----     x3
D-2-2--5-5--0-0--2-2----
A-2-2--3-3-------0-0----
E-0-0-------------------

e--------------------------------------------------------
B-----------3-3------------------------------------------
G------5-5--2-2--2-2-2-2---------------------------------
D-2-2--5-5--0-0--2-2-2-2-------------2-2-2-2--2-2-2-2----
A-2-2--3-3-------0-0-0-0--0h1p0------2-2-2-2--2-2-2-2----
E-0-0---------------------------3p0--0-0-0-0--0-0-0-0----

Solo
e--------------------------------------------------------------------------------
B--------------------------------------------------------------------------------
G------------------------------------12-------------------------11-11-11h12-12---
D-12h14-14-14--12h14-14-14--12h14-14----14--14-14-14-14-14-14--------------------
A--------------------------------------------------------------------------------
E--------------------------------------------------------------------------------

e--------------------------------------------------------------------------------
B-------12-------12--------------------------------------------------------------
G----------12-------12-----12-14-14b15r14p12----12--11h12p11----12p11------------
D-12h14-------14-------14--------------------14--------------14-------14-12-14---
A--------------------------------------------------------------------------------
E--------------------------------------------------------------------------------

Chorus
e-----------------------
B-----------3-3---------
G------5-5--2-2--2-2----     x3
D-2-2--5-5--0-0--2-2----
A-2-2--3-3-------0-0----
E-0-0-------------------

e------------------------------
B-----------3-3-3-3-3-3-3------
G------5-5--2-2-2-2-2-2-2------
D-2-2--5-5--0-0-0-0-0-0-0------
A-2-2--3-3---------------------
E-0-0--------------------------

Outro
e--------------------------------
B--------------------------------
G-----x-3-x-2--------------------    x2
D-x-2-x-3-x-2-------------2------
A-x-2-x-1-x-0-1-0h1p0------------
E-x-0-----------------3p0--------


Eli Young Band Tabs & ChordsEli Young Band Lyrics



Eli Young Band Tabs, Tablatures, Chords, Lyrics

Buy Eli Young Band CD
Eli Young Band
Buy Eli Young Band CD

  1. Eli Young Band - Always The Love Song Chords
  2. Eli Young Band - Back Of My Mind Chords
  3. Eli Young Band - Bottom Line Chords
  4. Eli Young Band - Bring It On Home Chords
  5. Eli Young Band - Crazy Girl Chords
  6. Eli Young Band - Crazy Girl 2 Chords
  7. Eli Young Band - Drive Away Chords
  8. Eli Young Band - Drunk Last Night Chords
  9. Eli Young Band - Enough Is Enough Chords
  10. Eli Young Band - Everything Is You Chords
  11. Eli Young Band - Famous Chords
  12. Eli Young Band - Get In The Car And Drive Chords
  13. Eli Young Band - Girl In Red Chords
  14. Eli Young Band - Guardian Angel Chords
  15. Eli Young Band - Guinevere Chords
  16. Eli Young Band - Here's To You Chords
  17. Eli Young Band - Highways And Broken Hearts Chords
  18. Eli Young Band - Home Chords
  19. Eli Young Band - How Should I Know Chords
  20. Eli Young Band - I Call The Tune Tabs
  21. Eli Young Band - I Still Think It's Me Chords
  22. Eli Young Band - Im In Love Chords
  23. Eli Young Band - Jet Black and Jealous Chords
  24. Eli Young Band - Level Chords
  25. Eli Young Band - Lonley All The Time Chords
  26. Eli Young Band - Mystery In The Making Chords
  27. Eli Young Band - Oklahoma Girl Chords
  28. Eli Young Band - Radio Waves Chords
  29. Eli Young Band - San Antone Chords
  30. Eli Young Band - Show You How To Love Again Chords
  31. Eli Young Band - Skeletons Chords
  32. Eli Young Band - Small Town Kid Chords
  33. Eli Young Band - Small Town Kid 2 Chords
  34. Eli Young Band - So Close Now Chords
  35. Eli Young Band - That's The Way Chords
  36. Eli Young Band - The Fight Chords
  37. Eli Young Band - The More The Room Goes Dark Chords
  38. Eli Young Band - The falling Chords
  39. Eli Young Band - Throw And Go Chords
  40. Eli Young Band - Uncertain Chords
  41. Eli Young Band - War On A Desperate Man Tabs
  42. Eli Young Band - We Could Be Forever Chords
  43. Eli Young Band - When It Rains Chords
  44. Eli Young Band - When You Come Down My Way Chords



cowboylyrics.com
All lyrics are property and copyright of their owners. All lyrics provided for educational purposes only.