, Wonderful Tonight Intro Tabs, Chords, Lyrics

, Wonderful Tonight Intro Tabs, Chords

 SITE MENU
 Request Tabs
 Add/Correct Tabs
 DMCA Policy
 Country Sheet Music
0

BROWSE LYRICS AND TABS BY ARTIST/BAND NAME: SEARCH HERE:
A B C D E F G H I J K L M N O P Q R S T U V W X Y Z #
 

- Wonderful Tonight Intro (Tabs)


CD
 Sheet music
Posters
i have looked at tabs for this and i have found that all of them are wrong so 
i just did it my self Enjoy this tab very easy to play wonderful song by Eric 
Clapton!!!!!!

                   

                     This Is Played Through The Whole Song
                                


                                B^ IS BEND UP 

e---------------------------------------------------------------------------
B-10b^--8-10----10b^--8------10b^--8--10------------------------------------
G------------------------9--------------------------------------------------
D---------------------------------------------------------------------------
A---------------------------------------------------------------------------
E---------------------------------------------------------------------------



e---------------------------------------------------------------------------
B-10b^--8-10----10b^--8------10b^--8--10--12---15--17--15-------------------
G------------------------9--------------------------------------------------
D---------------------------------------------------------------------------
A---------------------------------------------------------------------------
E---------------------------------------------------------------------------


ERIC CLAPT0N Tabs & Chords



ERIC CLAPT0N Tabs, Tablatures, Chords, Lyrics

Buy ERIC CLAPT0N CD
ERIC CLAPT0N
Buy ERIC CLAPT0N CD

  1. ERIC CLAPT0N - Wonderful Tonight Chords) Chords
  2. ERIC CLAPT0N - Wonderful Tonight Intro Tabs



cowboylyrics.com
All lyrics are property and copyright of their owners. All lyrics provided for educational purposes only.