Tyler Farr, Hot Mess (lead) Tabs, Chords, Lyrics

Tyler Farr, Hot Mess (lead) Tabs, Chords

 SITE MENU
 Request Tabs
 Add/Correct Tabs
 DMCA Policy
 Country Sheet Music
0

BROWSE LYRICS AND TABS BY ARTIST/BAND NAME: SEARCH HERE:
A B C D E F G H I J K L M N O P Q R S T U V W X Y Z #
 

Tyler Farr - Hot Mess (lead) (Chords)


Tyler Farr CD
Tyler Farr Sheet music
Tyler Farr Posters
Intro:
e----------------------------------------------------------------------------------------------------------------------------------
B----------------------------------------------------------------------------------------------------------------------------------
G----------------------------------------------------------------------------------------------------------------------------------
D----------------------------------------------------------------------------------------------------------------------------------
A-------3-3-----------3-3-----------3-3--5b(7)-5b(7)--5/7\5p3------------3-3-----------3-3----------3-3--5b(7)-5b(7)--5/7\5-3------
E---3-5-----5p3---3-5-----5p3---3-5---------------------------5p3----3-5-----5p3---3-5-----5p3---3-5--------------------------5p3--

Lick in the middle of Verse 1:
After "looks like a hurricane just came through"
e----------------------------------------------------------------------------------------
B--8-------------------------------------------------------------------------------------
G--7h9--7\5------------------------------------------------------------------------------
D------------7p5-------------------------------------------------------------------------
A----------------------------------------------------------------------------------------
E----------------------------------------------------------------------------------------

Chorus lick:
After "Country girl come to town, lookin' like a rock star"
e----------------------------------------------------------------------------------------
B----------------------------------------------------------------------------------------
G----------------------------------------------------------------------------------------
D---------0------------------------------------------------------------------------------
A------2----2--3-------------------------------------------------------------------------
E---3------------------------------------------------------------------------------------

Lick in the middle of Verse 2:
After "Barefoot and groovin' like nobody's watchin'"
e----------------------------------------------------------------------------------------
B----------------------------------------------------------------------------------------
G---7b(9)--7p5---------------------------------------------------------------------------
D---------------7p5----------------------------------------------------------------------
A----------------------------------------------------------------------------------------
E----------------------------------------------------------------------------------------

Lick at the end of Verse 2:
After "Play them boys like a bluegrass fiddle"
w/ wah
e--------12-----------10-----13----------------------------------------------------------
B-----13----13-----12----12--------------------------------------------------------------
G--12-----------12--------------12b(14)r--12---------------------------------------------
D---------------------------------------------12-10\-------------------------------------
A----------------------------------------------------------------------------------------
E----------------------------------------------------------------------------------------


Solo:
e---------------------------------------------------------------------------15-------13--------------------------------------------------------------------------------------
B-------------------------------------------------------------13---15bh(17)----15(17)--15(17)--15(17)r--13-15-13-13---12h13p12-----------------------------------------------
G-7bh(9)--7(9)r--9\7p5-7----5---------------------------4-5/14--14-------------------------------------------------------------12--------------------------------------------
D-------------------------7---7-5---5---------------5-7---------------------------------------------------------------------------14\12p10-12-12---10p9----------------------
A---------------------------------7---7p5-------5-7-----------------------------------------------------------------------------------------------------12p10----10-12p10\8--
E-----------------------------------------8-5-8---------------------------------------------------------------------------------------------------------------12-------------


Farr Tyler Tabs & ChordsFarr Tyler Lyrics



Farr Tyler Tabs, Tablatures, Chords, Lyrics

Buy Farr Tyler CD
Farr Tyler
Buy Farr Tyler CD

  1. Farr Tyler - A Guy Walks Into A Bar Chords
  2. Farr Tyler - Ain't Even Drinkin' Chords
  3. Farr Tyler - Camouflage Chords
  4. Farr Tyler - Cowgirl Chords
  5. Farr Tyler - Hello Goodbye Chords
  6. Farr Tyler - Hot Mess Chords
  7. Farr Tyler - Hot Mess (lead) Chords
  8. Farr Tyler - I Hope I Dont Live To See That Day Chords
  9. Farr Tyler - Mine Tonight Chords
  10. Farr Tyler - Redneck Crazy Chords
  11. Farr Tyler - Redneck Crazy (lead) Chords
  12. Farr Tyler - Whiskey In My Water Chords
  13. Farr Tyler - Wish I Had A Boat Chords



cowboylyrics.com
All lyrics are property and copyright of their owners. All lyrics provided for educational purposes only.