Tyler Farr, Redneck Crazy (lead) Tabs, Chords, Lyrics

Tyler Farr, Redneck Crazy (lead) Tabs, Chords

 SITE MENU
 Request Tabs
 Add/Correct Tabs
 DMCA Policy
 Country Sheet Music
0

BROWSE LYRICS AND TABS BY ARTIST/BAND NAME: SEARCH HERE:
A B C D E F G H I J K L M N O P Q R S T U V W X Y Z #
 

Tyler Farr - Redneck Crazy (lead) (Chords)


Tyler Farr CD
Tyler Farr Sheet music
Tyler Farr Posters
Intro:	Gm	Eb	F 2x's
E[--------------------------------------------------------]
B[--------13-11------13-10--------------------------------]
G[----10-----------10--------------5-2(vibrato)-----------]
D[-------------------------------3------------------------]
A[--------------------------------------------------------]
E[--------------------------------------------------------]

Guitar Solo:
E[---------------------------------------------------------------]
B[-13b(15)--13-11-13b-release---11/13b-13b-13b-11-10-------------]
G[---------------------------------------------------10(vibrato)\]
D[---------------------------------------------------------------]
A[---------------------------------------------------------------]
E[---------------------------------------------------------------]

E[--------------------------------------------------------------------]
B[--------------------------------------------------------------------]
G[--10-12-10------------------------------------------5b-5b-a-release-]
D[--10-------10h12p10b----------10b--10b-10b-------5h7----------------]
A[-------------------------10h12--------------------------------------]
E[--------------------------------------------------------------------]


Farr Tyler Tabs & ChordsFarr Tyler Lyrics



Farr Tyler Tabs, Tablatures, Chords, Lyrics

Buy Farr Tyler CD
Farr Tyler
Buy Farr Tyler CD

  1. Farr Tyler - Ain't Even Drinkin' Chords
  2. Farr Tyler - Camouflage Chords
  3. Farr Tyler - Cowgirl Chords
  4. Farr Tyler - Hello Goodbye Chords
  5. Farr Tyler - Hot Mess Chords
  6. Farr Tyler - Hot Mess (lead) Chords
  7. Farr Tyler - I Hope I Dont Live To See That Day Chords
  8. Farr Tyler - Mine Tonight Chords
  9. Farr Tyler - Redneck Crazy Chords
  10. Farr Tyler - Redneck Crazy (lead) Chords
  11. Farr Tyler - Whiskey In My Water Chords
  12. Farr Tyler - Wish I Had A Boat Chords



cowboylyrics.com
All lyrics are property and copyright of their owners. All lyrics provided for educational purposes only.