, Star Spangled Banner Tabs, Chords, Lyrics

, Star Spangled Banner Tabs, Chords

 SITE MENU
 Request Tabs
 Add/Correct Tabs
 DMCA Policy
 Country Sheet Music
0

BROWSE LYRICS AND TABS BY ARTIST/BAND NAME: SEARCH HERE:
A B C D E F G H I J K L M N O P Q R S T U V W X Y Z #
 

- Star Spangled Banner (Tabs)


CD
 Sheet music
Posters
  E[---------------0------------------0----------------------:]
  B[------------1----3--1---------------3-1-0----------------:]	
  G[--0-------0--------------------------------2-4-5-5-0-----:]}repeat
  D[----2---2-------------2--4-5--5-5--------------------2---:]	
  A[------3------------------------------------------------3-:]
  E[---------------------------------------------------------:]

  E[0-0-0-1-3-3--3-1----0-1-1--1-0----------------------]
  B[------------------3------------3-1-0----------------]
  G[---------------------------------------2-4-5--------]
  D[---------------------------------------------2-4-5--]
  A[----------------------------------------------------]
  E[----------------------------------------------------]

  E[----------------------1-0------------------0-1-3-----0-1-----]
  B[-----1-1-1-0--------3-----3-1-1-0------1--3------1-3-----3-1-]
  G[-------------2-2-2-----------------0-0-----------------------]
  D[-5-5---------------------------------------------------------]
  A[-------------------------------------------------------------]
  E[-------------------------------------------------------------]

-Easy, you can add your own accents to make it sound really cool.


Francis Scott Key Tabs & Chords



Francis Scott Key Tabs, Tablatures, Chords, Lyrics

Buy Francis Scott Key CD
Francis Scott Key
Buy Francis Scott Key CD

  1. Francis Scott Key - Star Spangled Banner Tabs



cowboylyrics.com
All lyrics are property and copyright of their owners. All lyrics provided for educational purposes only.