Gipsy Kings, Bem, Bem, Maria Tabs, Chords, Lyrics

Gipsy Kings, Bem, Bem, Maria Tabs, Chords

 SITE MENU
 Request Tabs
 Add/Correct Tabs
 DMCA Policy
 Country Sheet Music
0

BROWSE LYRICS AND TABS BY ARTIST/BAND NAME: SEARCH HERE:
A B C D E F G H I J K L M N O P Q R S T U V W X Y Z #
 

Gipsy Kings - Bem, Bem, Maria (Tabs)


Gipsy Kings CD
Gipsy Kings Sheet music
Gipsy Kings Posters
 Bem, Bem, Maria
Gipsy Kings


Gtr I    Acoustic
Gtr II   Electric
Gtr III  Acoustic

All Guitars Standard Tuning

  Q=180
 4/4
  Gtr I
  Q  Q  Q.   E   +E  Q  E E E Q    Q  Q  Q.   E   +E  Q  E E E Q
|-7--7--7----7-|-(7)-7--7-7-7-7--|-7--7--7----7-|-(7)-7--7-7-7-7---|
|-8--8--7----8-|-(8)-8--7-7-7-7--|-8--8--7----8-|-(8)-8--7-7-7-7---|
|-9--9--7----9-|-(9)-9--7-7-7-7--|-9--9--7----9-|-(9)-9--7-7-7-7---|
|-9--9--7----9-|-(9)-9--7-7-7-7--|-9--9--7----9-|-(9)-9--7-7-7-7---|
|-7--7--7----7-|-(7)-7--7-7-7-7--|-7--7--7----7-|-(7)-7--7-7-7-7---|
|--------------|-----------------|--------------|------------------|


    |-3-| |-3-|      |-3-| |-3-|
  E S S S S S S E Q  S S S S S S   E E E E +E  E E E
|-7-7-7-7-7-7-7-7-7--7-7-7-7-7-7-|-7-7-7-7-(7)-7-7-7-|
|-7-8-8-8-8-8-8-8-8--8-8-8-8-8-8-|-8-8-8-7-(7)-7-7-7-|
|-9-9-9-9-9-9-9-9-9--9-9-9-9-9-9-|-9-9-9-7-(7)-7-7-7-|
|-9-9-9-9-9-9-9-9-9--9-9-9-9-9-9-|-9-9-9-7-(7)-7-7-7-|
|-7-7-7-7-7-7-7-7-7--7-7-7-7-7-7-|-7-7-7-7-(7)-7-7-7-|
|--------------------------------|-------------------|


  Gtr II
  W                                W
|--------------------------------|-------------------|
|--------------------------------|-------------------|
|--------------------------------|-------------------|
|--------------------------------|-------------------|
|--------------------------------|-------------------|
|--------------------------------|-------------------|
|
| Gtr I
|   |-3-| |-3-|      |-3-| |-3-|
| E S S S S S S E Q  S S S S S S   E E E E +E  E E E
|-7-7-7-7-7-7-7-7-7--7-7-7-7-7-7-|-7-7-7-7-(7)-7-7-7-|
|-7-8-8-8-8-8-8-8-8--8-8-8-8-8-8-|-8-8-8-7-(7)-7-7-7-|
|-9-9-9-9-9-9-9-9-9--9-9-9-9-9-9-|-9-9-9-7-(7)-7-7-7-|
|-9-9-9-9-9-9-9-9-9--9-9-9-9-9-9-|-9-9-9-7-(7)-7-7-7-|
|-7-7-7-7-7-7-7-7-7--7-7-7-7-7-7-|-7-7-7-7-(7)-7-7-7-|
|--------------------------------|-------------------|


    Q.         E   E   Q.
||---------------------------------|
||o--------------------------------|
||--2----------0-------------------|
||-----------------4---2-----------|
||o--------------------------------|
||---------------------------------|
|
|   E  S S S S S E   S S  S S S E
||--7--7-7-7-7-7-7---7-7--7-7-7-7--|
||o-7--7-7-8-8-8-8---8-8--8-8-8-8--|
||--9--9-9-9-9-9-9---9-9--9-9-9-9--|
||--9--9-9-9-9-9-9---9-9--9-9-9-9--|
||o-7--7-7-7-7-7-7---7-7--7-7-7-7--|
||---------------------------------|


  W                 H       E Q   E
|-----------------|-----------------|
|-----------------|-----------------|
|-----------------|-----------2---0-|
|-----------------|-----------------|
|-----------------|-----------------|
|-----------------|-----------------|
|
| E E E E E E E E   E E E E E E E E
|-7-7-7-7-7-7-7-7-|-7-7-7-7-7-7-7-7-|
|-8-8-8-8-8-8-8-8-|-8-8-8-8-8-8-8-8-|
|-9-9-9-9-9-9-9-9-|-9-9-9-9-9-9-9-9-|
|-9-9-9-9-9-9-9-9-|-9-9-9-9-9-9-9-9-|
|-7-7-7-7-7-7-7-7-|-7-7-7-7-7-7-7-7-|
|-----------------|-----------------|


  E.   S E   E   E   Q.           W
|-------------------------------|-----------------|
|------0------------------------|-----------------|
|-2------2---0------------------|-----------------|
|----------------4---2----------|-----------------|
|-------------------------------|-----------------|
|-------------------------------|-----------------|
|
| E  S S S S S E   S S  S S S E   E E E E E E E E
|-7--7-7-7-7-7-7---7-7--7-7-7-7-|-7-7-7-7-7-7-7-7-|
|-8--8-8-8-8-8-8---8-8--8-8-8-8-|-8-8-8-8-8-8-8-8-|
|-9--9-9-9-9-9-9---9-9--9-9-9-9-|-9-9-9-9-9-9-9-9-|
|-9--9-9-9-9-9-9---9-9--9-9-9-9-|-9-9-9-9-9-9-9-9-|
|-7--7-7-7-7-7-7---7-7--7-7-7-7-|-7-7-7-7-7-7-7-7-|
|-------------------------------|-----------------|


  H       E E E E   H             +E    E   E   E
|-----------------|-------------------------------|
|-----------0-0-0-|-------------------------------|
|-----------------|-2-------------(2)---0---------|
|-----------------|-------------------------4---2-|
|-----------------|-------------------------------|
|-----------------|-------------------------------|
|
| E E E E E E E E   E S S S S S E     S S S S S E
|-7-7-7-7-7-7-7-7-|-7-7-7-7-7-7-7-----7-7-7-7-7-7-|
|-8-8-8-8-8-8-8-8-|-8-8-8-8-8-8-8-----8-8-8-8-8-8-|
|-9-9-9-9-9-9-9-9-|-9-9-9-9-9-9-9-----9-9-9-9-9-9-|
|-9-9-9-9-9-9-9-9-|-9-9-9-9-9-9-9-----9-9-9-9-9-9-|
|-7-7-7-7-7-7-7-7-|-7-7-7-7-7-7-7-----7-7-7-7-7-7-|
|-----------------|-------------------------------|


  E E E E Q   E E   +E  E Q   E E E E
|-----------------|-------------------|
|-----------------|-------------------|
|-------0-2-----0-|-(0)---------------|
|-0-2-4-------4---|-----2-4---0-2-4-2-|
|-----------------|-------------------|
|-----------------|-------------------|
|
| E E E E E E E E    E  E E E E E E E
|-5-5-5-5-5-5-5-5-|--5--5-5-5-5-5-5-5-|
|-7-7-7-7-7-7-7-7-|--7--7-7-7-7-7-7-7-|
|-7-7-7-7-7-7-7-7-|--7--7-7-7-7-7-7-7-|
|-7-7-7-7-7-7-7-7-|--7--7-7-7-7-7-7-7-|
|-5-5-5-5-5-5-5-5-|--5--5-5-5-5-5-5-5-|
|-5-5-5-5-5-5-5-5-|--5--5-5-5-5-5-5-5-|


  S S Q.           +H                W                 H       E E E E
|----------------------------------|-----------------|-----------------|
|----------------------------------|-----------------|-----------------|
|----------------------------------|-----------------|-----------------|
|-0---0------------(0)-------------|-----------------|-----------4-4-4-|
|---4------------------------------|-----------------|-----------------|
|----------------------------------|-----------------|-----------------|
|
| E   S  S S S S E     S S S S S E   E E E E E E E E   E E E E E E E E
|-5---5--5-5-5-5-5-----5-5-5-5-5-5-|-5-5-5-5-5-5-5-5-|-5-5-5-5-5-5-5-5-|
|-7---7--7-7-7-7-7-----7-7-7-7-7-7-|-8-8-8-8-8-8-8-8-|-7-7-7-7-7-7-7-7-|
|-7---7--7-7-7-7-7-----7-7-7-7-7-7-|-7-7-7-7-7-7-7-7-|-7-7-7-7-7-7-7-7-|
|-7---7--7-7-7-7-7-----7-7-7-7-7-7-|-5-5-5-5-5-5-5-5-|-7-7-7-7-7-7-7-7-|
|-5---5--5-5-5-5-5-----5-5-5-5-5-5-|-5-5-5-5-5-5-5-5-|-5-5-5-5-5-5-5-5-|
|-5---5--5-5-5-5-5-----5-5-5-5-5-5-|-5-5-5-5-5-5-5-5-|-5-5-5-5-5-5-5-5-|


  Q     Q       E   S S Q
|-----------------------------|
|-----------------------------|
|-0---------------------------|
|-------2-------4---5-4-0-----|
|-----------------------------|
|-----------------------------|
|
| E S S S S S E   S S S S S E
|-5-5-5-5-5-5-5---5-5-5-5-5-5-|
|-7-7-7-7-7-7-7---7-7-7-7-7-7-|
|-7-7-7-7-7-7-7---7-7-7-7-7-7-|
|-7-7-7-7-7-7-7---7-7-7-7-7-7-|
|-5-5-5-5-5-5-5---5-5-5-5-5-5-|
|-5-5-5-5-5-5-5---5-5-5-5-5-5-|


   E  S S  E  E +E   E  E  E    Q     H           Q
|----------------------------|-------------------------|
|----------------------------|-------------------------|
|----------------------------|-------------------------|
|--2--4-2--0--2-(2)--0-------|-------------------------|
|-----------------------3--2-|--3----------------------|
|----------------------------|-------------------------|
|
|  E  E    E  E  E   E  E  E    E  E  E  E  E  E  E  E
|--8--8----8--8--8---8--8--8-|--8--8--8--8--8--8--8--8-|
|--8--8----8--8--8---8--8--8-|--8--8--8--8--8--8--8--8-|
|--9--9----9--9--9---9--9--9-|--9--9--9--9--9--9--9--9-|
|-10-10---10-10-10--10-10-10-|-10-10-10-10-10-10-10-10-|
|-10-10---10-10-10--10-10-10-|-10-10-10-10-10-10-10-10-|
|--8--8----8--8--8---8--8--8-|--8--8--8--8--8--8--8--8-|


   Q        Q          H
|------------------------------------------|
|------------------------------------------|
|-----------0----------0-------------------|
|------------------------------------------|
|------------------------------------------|
|------------------------------------------|
|
|  E  S  S  S  S  S  E    S  S  S  S  S  E
|--8--8--8--8--8--8--8----8--8--8--8--8--8-|
|--8--8--8--8--8--8--8----8--8--8--8--8--8-|
|--9--9--9--9--9--9--9----9--9--9--9--9--9-|
|-10-10-10-10-10-10-10---10-10-10-10-10-10-|
|-10-10-10-10-10-10-10---10-10-10-10-10-10-|
|--8--8--8--8--8--8--8----8--8--8--8--8--8-|


   Q.       E +Q      Q      H.          


Gipsy Kings Tabs & Chords



Gipsy Kings Tabs, Tablatures, Chords, Lyrics

Buy Gipsy Kings CD
Gipsy Kings
Buy Gipsy Kings CD

  1. Gipsy Kings - Bem, Bem, Maria Tabs
  2. Gipsy Kings - Love And Liberte Tabs



cowboylyrics.com
All lyrics are property and copyright of their owners. All lyrics provided for educational purposes only.