Gipsy Kings, Love And Liberte Tabs, Chords, Lyrics

Gipsy Kings, Love And Liberte Tabs, Chords

 SITE MENU
 Request Tabs
 Add/Correct Tabs
 DMCA Policy
 Country Sheet Music
0

BROWSE LYRICS AND TABS BY ARTIST/BAND NAME: SEARCH HERE:
A B C D E F G H I J K L M N O P Q R S T U V W X Y Z #
 

Gipsy Kings - Love And Liberte (Tabs)


Gipsy Kings CD
Gipsy Kings Sheet music
Gipsy Kings Posters
Love And Liberte (Bassline)
By Gipsy Kings

Gtr I   Bass
Gtr II  Viola

 Intro
                                       Q=151
  N.C.
 20/16          5/4          4/4
  Gtr I
  Wx2            W            W          W
|--------------|------------|----------|------|
|--------------|------------|----------|------|
|--------------|------------|----------|------|
|--------------|------------|----------|------|


 Main Theme
  C                     B
  W          W          W          W
|----------|----------|----------|------|
|----------|----------|----------|------|
|-3--------|-3--------|-2--------|-2----|
|----------|----------|----------|------|


  A                     C
  W          W          W          W
|----------|----------|----------|------|
|----------|----------|----------|------|
|-0--------|-0--------|-3--------|-3----|
|----------|----------|----------|------|


  B                     A
  W          W          W          W
|----------|----------|----------|------|
|----------|----------|----------|------|
|-2--------|-2--------|-0--------|-0----|
|----------|----------|----------|------|


                       Guitar Solo
  W          W          W          W
|----------|----------|----------|------|
|----------|----------|----------|------|
|----------|----------|----------|-0----|
|-0--------|-0--------|-0--------|------|
|
| Gtr II
| W          W          W          W
|----------|----------|----------|------|
|----------|----------|----------|------|
|----------|----------|----------|-0----|
|----------|----------|----------|------|


         E      B          B    F#     B
   H     H      W          H    H      W
|-------------|----------|-----------|------|
|--------2----|----------|-----------|------|
|--0----------|-2--------|-2---------|-2----|
|-------------|----------|------2----|------|
|
| +W            W          W           W
|-------------|----------|-----------|-4----|
|-------------|----------|-----------|------|
|-(0)---------|-2--------|-----------|------|
|-------------|----------|-2---------|------|


  C#   Eb     E       B    E    C#     A
  H    H      W            H    H      W
|-----------|------------|-----------|------------|
|------1----|------------|-----------|------------|
|-4---------|------------|------4----|-0----------|
|-----------|-0----------|-0---------|------------|
|
| H    H      H.      Q    H    H      H.      Q
|-6----8----|-9----------|------6----|-7----------|
|-----------|---------9--|-7---------|---------7--|
|-----------|------------|-----------|------------|
|-----------|------------|-----------|------------|


  G    B      C       G    F    C      B    Eb
  H    H      W            H    H      H    H
|-----------|------------|-----------|-----------|
|-----------|------------|-----------|------1----|
|------2----|-3----------|------3----|-2---------|
|-3---------|------------|-1---------|-----------|
|
| H    H      H.      Q    H    H      H    H
|------4----|-5----------|------5----|-4---------|
|-5---------|---------5--|-3---------|------1----|
|-----------|------------|-----------|-----------|
|-----------|------------|-----------|-----------|


            Theme
  E          E            A    C#     D
  W           W           H    H      W
|----------|------------|-----------|------------|
|----------|------------|-----------|-0----------|
|----------|------------|-0----4----|------------|
|-0--------|--0---------|-----------|------------|
|
| W          +W           H    H      H.      Q
|----------|------------|------6----|-7----------|
|-2--------|-(2)--------|-7---------|---------7--|
|----------|------------|-----------|------------|
|----------|------------|-----------|------------|


  G    B      C            F    C      B    Eb
  H    H      W            H    H      H    H
|-----------|------------|-----------|-----------|
|-----------|------------|-----------|------1----|
|------2----|-3----------|------3----|-2---------|
|-3---------|------------|-1---------|-----------|
|
| H    H      H.      Q    H    H      H    H
|------4----|-5----------|------5----|-4---------|
|-5---------|---------5--|-3---------|------1----|
|-----------|------------|-----------|-----------|
|-----------|------------|-----------|-----------|


            Guitar Solo 2
  E                       D                 A
  W          +W           W           H     H
|----------|------------|----------|-------------|
|----------|------------|-0--------|--0----------|
|----------|------------|----------|--------0----|
|-0--------|-(0)--------|----------|-------------|
|
| W          +W           W          +W
|----------|------------|----------|-------------|
|-2--------|-(2)--------|-0--------|-(0)---------|
|----------|------------|----------|-------------|
|----------|------------|----------|-------------|


  C                 F#     B
  W           H     H      W          +W
|----------|-------------|----------|--------|
|----------|-------------|----------|--------|
|-3--------|--3----------|-2--------|-(2)----|
|----------|--------2----|----------|--------|
|
| W          +W            W          +W
|----------|-------------|----------|--------|
|----------|-------------|----------|--------|
|-3--------|-(3)---------|-2--------|-(2)----|
|----------|-------------|----------|--------|


             F#   Eb     B               Eb
  W          H    H      W          H    H
|----------|-----------|----------|-----------|
|----------|-4----1----|----------|------1----|
|-2--------|-----------|-2--------|-2---------|
|----------|-----------|----------|-----------|
|
| W          H    H      W          H    H
|----------|-----------|----------|-----------|
|----------|-4----1----|----------|------1----|
|-3--------|-----------|-2--------|-2---------|
|----------|-----------|----------|-----------|


  E                       D          G
  W           W           W          W
|----------|------------|----------|------|
|----------|------------|-0--------|------|
|----------|------------|----------|------|
|-0--------|--0---------|----------|-3----|
|
| W          +W           W          W
|----------|------------|----------|------|
|-2--------|-(2)--------|-0--------|------|
|----------|------------|----------|------|
|----------|------------|----------|------|


  F          E          D          C
  W          W          W          W
|----------|----------|----------|------|
|----------|----------|-0--------|------|
|----------|----------|----------|-3----|
|-1--------|-0--------|----------|------|
|
| W          W          W          W
|----------|----------|----------|------|
|----------|----------|----------|------|
|----------|----------|-0--------|------|
|-1--------|-0--------|----------|-3----|


                         Main Theme Revisited
  B                       C
  W           W           W          W
|----------|------------|----------|------|
|----------|------------|----------|------|
|-2--------|--2---------|-3--------|-3----|
|----------|------------|----------|------|
|
| W          +W           W          W
|----------|------------|----------|------|
|----------|------------|----------|-2----|
|----------|------------|-3--------|------|
|-2--------|-(2)--------|----------|------|


  B          A                     C
  W          W          W          W
|----------|----------|----------|------|
|----------|----------|----------|------|
|-2--------|-0--------|-0--------|-3----|
|----------|----------|----------|------|
|
| W          W          W          W
|----------|----------|----------|------|
|-0--------|----------|----------|------|
|----------|-3--------|-0--------|-3----|
|----------|----------|----------|------|


             B           


Gipsy Kings Tabs & Chords



Gipsy Kings Tabs, Tablatures, Chords, Lyrics

Buy Gipsy Kings CD
Gipsy Kings
Buy Gipsy Kings CD

  1. Gipsy Kings - Bem, Bem, Maria Tabs
  2. Gipsy Kings - Love And Liberte Tabs



cowboylyrics.com
All lyrics are property and copyright of their owners. All lyrics provided for educational purposes only.