Greg Richard, Greg's Original Song Tabs, Chords, Lyrics

Greg Richard, Greg's Original Song Tabs, Chords

 SITE MENU
 Request Tabs
 Add/Correct Tabs
 DMCA Policy
 Country Sheet Music
0

BROWSE LYRICS AND TABS BY ARTIST/BAND NAME: SEARCH HERE:
A B C D E F G H I J K L M N O P Q R S T U V W X Y Z #
 

Greg Richard - Greg's Original Song (Tabs)


Greg Richard CD
Greg Richard Sheet music
Greg Richard Posters
This my original song so let me know what you think

 
e---------------------------7-7-7-7-7------------------------------
B---------------------------7-7-7-7-7------------------------------
G---------------------------7-7-7-7-7------------------------------
D---------------------------7-7-7-7-7------------------------------
A------------------------------------------------------5\1-3-5-----
E---14\---5h7-77-77-77-7---------------5h7-77-77-77-7--------------

e---------------------------------------------------------
B---------------------------------------------------------
G---------------------------------------------------------
D---------------------------------------------------------
A--3h5-3--10--9-7--5\4-5--7-7b------10--9-7--5\4-5--7-7b--
E---------------------------------------------------------

e---------------------7-7-7-7-7---------------------------
B---------------------7-7-7-7-7---------------------------
G---------------------7-7-7-7-7---------------------------
D---------------------7-7-7-7-7---------------------------
A------------------------------------------------5\1-3-5--
E---5h7-77-77-77-7---------------5h7-77-77-77-7-----------


Greg Richard Tabs & Chords



Greg Richard Tabs, Tablatures, Chords, Lyrics

Buy Greg Richard CD
Greg Richard
Buy Greg Richard CD

  1. Greg Richard - Greg's Original Song Tabs



cowboylyrics.com
All lyrics are property and copyright of their owners. All lyrics provided for educational purposes only.