, Seventh And Union Tabs, Chords, Lyrics

, Seventh And Union Tabs, Chords

 SITE MENU
 Request Tabs
 Add/Correct Tabs
 DMCA Policy
 Country Sheet Music
0

BROWSE LYRICS AND TABS BY ARTIST/BAND NAME: SEARCH HERE:
A B C D E F G H I J K L M N O P Q R S T U V W X Y Z #
 

- Seventh And Union (Tabs)


CD
 Sheet music
Posters
Hank Garland:Seventh and Union

Album:Guitar Player Presents Legends Of Country Guitar Vol 2
Guitarist:Hank Garland

A great western swing tune by a legendary guitar picker!
Enjoy! ~Cal

E--------------------------------------------------------------
B--------11p10p9-8-11p10p9-8--------11p10p9-8-11p10p9-8--------
G----------------------------8----8---------------------8----8-
D------------------------------10-------------------------10---
A--------------------------------------------------------------
E-6-8-10-------------------------------------------------------


E---------------------10-8-----------------------------
B-11p10p9-8-11p10p9-8------8-8---11-8----------------8-
G------------------------------8------8-------7-8-10---
D----------------------------------------8-10----------
A------------------------------------------------------
E------------------------------------------------------


E-------------------------------------------------------
B-11p10p9-8-11p10p9-8--------11p10p9-8-11p10p9-8--------
G---------------------8----8---------------------8----8-
D-----------------------10-------------------------10---
A-------------------------------------------------------
E-------------------------------------------------------


E---------------------10-8-------------------
B-11p10p9-8-11p10p9-8------8-8---11p10p9\8---
G------------------------------8-----------8-
D--------------------------------------------
A--------------------------------------------
E--------------------------------------------


E-----------------------------------------------------------
B-----------------------------------------------------------
G------8-10-8-11-8-10-8-10/11\10-8----8---------------------
D-9h10-----------------------------10---10-8----------------
A--------------------------------------------11-10-9h10-9h10
E-----------------------------------------------------------


E-----------------------------------------------------------
B------------------11\10\9---------------------------8------
G---8------8-11h12---------8------8h10p8-----------8------8-
D-8---8-10-------------------10-8--------10-8-7-10-----10---
A-----------------------------------------------------------
E-----------------------------------------------------------


E-------------------------------------------------------
B-8\7-8-7h8--------11-10-9---------8\7-8------11p10p9-8-
G-----------8--------------------8-------10-------------
D-------------10-8------------10------------8-----------
A--------------------------11---------------------------
E-------------------------------------------------------


E--------------------------------------------------------
B-11p10p9-8---------11p10p9-8-11p10p9-8--------11p10p9-8-
G-----------8----8----------------------8----8-----------
D-------------10--------------------------10-------------
A--------------------------------------------------------
E--------------------------------------------------------


E-----------10-8--------------------------------------------
B-11p10p9-8------8-8------8-11-8----------------------8-----
G-----------------------8--------8------7-8-10-8----8---8---
D--------------------10------------8-10----------10-------10
A-----------------------------------------------------------
E-----------------------------------------------------------


E------------------------------------------------------------
B---8------7-7-------11-8------------------------------------
G-8---8--------11h12------8------8----8----------------------
D-------10------------------10-8---10---10------------8------
A------------------------------------------11-10-8-11---11-10
E------------------------------------------------------------


E------------------10h11p10-9h11p9-8-------------------------
B-------------8-11-------------------8-7-8------8-10b(11)r10-
G------7-8-10---------------------------------8--------------
D-8-10-------------------------------------10----------------
A------------------------------------------------------------
E------------------------------------------------------------


E------------------------------------------------------------
B-8----------------------------------------------------------
G---8-8------8-10-10b(11)-8-10b(11)r10-8-10/11\10-8-10-8h10p8
D-------8-10-------------------------------------------------
A------------------------------------------------------------
E------------------------------------------------------------


E-----------------------------------------------------------
B-----------------------------------------------------------
G--------8-----8--------8-----------------------------------
D-10-9-8---8-8---8h9h10---10-------8---------------8-------8
A----------------------------11-10---10-----6-9/10---9-8-7--
E---------------------------------------6-8-----------------


E-----------------------------------------------------------
B---10-9-8-7-------------11p10p9\8--------------------------
G-7----------10-9-8----7-------------8-10-8----8------------
D-------------------10-------------8--------10-----------6--
A----------------------------------------------------6-8---8
E------------------------------------------------9\8--------


E-----------------------------------------------------------
B-----------------------------------------------------------
G----------------8-----------------8-10-8----8-------------8
D-----6-----7-10---7-7-8-10-8-10-8--------10---10-9-8-7-10--
A-6-8---8/9-------------------------------------------------
E-----------------------------------------------------------


E---7-10-8-7------------------------------------------------
B-8----------11-8------10-9-8-7----11\10-9-8----------------
G-----------------8-------------10-----------10-8-----------
D-------------------10----------------------------10----12--
A----------------------------------------------------11-----
E-----------------------------------------------------------


E----------------------------------10p8p6-------------------
B-----------------------------------------8------7-8-11-8-9-
G-----------8---8-7-6------8----8-----------8---------------
D-11-10-9-8---8-------9/10---10---------------10------------
A-----------------------------------------------------------
E-----------------------------------------------------------


E-8-11/15-14-13-11/9----8--------9-11p9-8-------------------
B--------------------11---11-8------------8-9-8------8-11r10
G------------------------------8-------------------8--------
D-----------------------------------------------10----------
A-----------------------------------------------------------
E-----------------------------------------------------------


E-----------------------------------------------------------
B-8---------------------------------------------------------
G---8-8-----------------------------------------------------
D-----------------------------------------------------------
A-----------------------------------------------------------
E-----------------------------------------------------------

Fiddle Solo, then

E-----------------------------------------------------------
B-11-8-11p10p9-8-11-7-11-7----------11p10p9-8---------------
G--------------------------8------8-----------8------8-10-8-
D----------------------------10-8---------------10-8--------
A-----------------------------------------------------------
E-----------------------------------------------------------


E--------------------------------------------------------
B----------------8-11----8-11---11---10---9-8----------8-
G----8---------8-------8---------------------------7-8---
D-10---10-8-10-------8--------8----8----8-----9h10-------
A--------------------------------------------------------
E--------------------------------------------------------


E-----------------------------------------------------------
B-11p10p9-8----------------------------11-8-----------------
G-----------8------8-10b(11)-8-10----8------8------8-10p8---
D-------------8-10----------------10----------10-8--------10
A-----------------------------------------------------------
E-----------------------------------------------------------


E--------------------------------------------------11-------
B---8--------8--------9--------10--------11-----------7/8---
G-8---8----8---8----8---8----8----8----8----8----8--------8-
D-------10-------10-------10--------10--------10------------
A-----------------------------------------------------------
E-----------------------------------------------------------


E-----11-------11---------------------------
B-8h9----10h11----11-9p8--------------8-----
G------------------------8----------7---8-8-
D--------------------------10-7p6-8---------
A-------------------------------------------
E-------------------------------------------

Piano Solo, Then 

E-------------------------------------------------------
B-11p10p9-8-11p10p9-8--------11p10p9-8-11p10p9-8--------
G---------------------8----8---------------------8----8-
D-----------------------10-------------------------10---
A-------------------------------------------------------
E-------------------------------------------------------


E---------------------10-8--------------8h9h10/11-11p10p9-8-
B-11p10p9-8-11p10p9-8------8-8---11-8-----------------------
G------------------------------8------8---------------------
D-----------------------------------------------------------
A-----------------------------------------------------------
E-----------------------------------------------------------


E-----------------------------------------------------------
B-10------------------------------------------11-9-11p9\8---
G----11-8-----------------------------8-11/12---------------
D---------10-9-8-7-----------------10---------------------8-
A------------------9-8-7-6-15\8-11--------------------------
E-----------------------------------------------------------


E------
B----6-
G-8--7-
D----5-
A----6-
E------




Hank Garland Tabs & Chords



Hank Garland Tabs, Tablatures, Chords, Lyrics

Buy Hank Garland CD
Hank Garland
Buy Hank Garland CD

  1. Hank Garland - Seventh And Union Tabs



cowboylyrics.com
All lyrics are property and copyright of their owners. All lyrics provided for educational purposes only.