, Big Rock Candy Mountian Tabs, Chords, Lyrics

, Big Rock Candy Mountian Tabs, Chords

 SITE MENU
 Request Tabs
 Add/Correct Tabs
 DMCA Policy
 Country Sheet Music
0

BROWSE LYRICS AND TABS BY ARTIST/BAND NAME: SEARCH HERE:
A B C D E F G H I J K L M N O P Q R S T U V W X Y Z #
 

- Big Rock Candy Mountian (Tabs)


CD
 Sheet music
Posters
Artist:Harry McClintock
     
     *First Verse*
e--------------------------------------------------
B--------------------------------------------------
G--------------------------------------------------
D------------------------------5-5p0---------------
A--3-3-0---3-3-0---3-3--5-5--7---------------------
E--------3-------3---------------------------------
  
e--------------------------------------------------
B--------------------------------------------------
G--------------------------------------------------
D------------------------------5--5-7-7-5-5-7-7-5-5
A--3-3-0---3-3-0---3-3--5-5--7---------------------
E--------3-------3---------------------------------

e--------------------------------------------------
B--------------------------------------------------
G------------0-0-----------------------------------
D--7-5-3-2-0---------------------------------------
A----------------3-3-0---3-3-0---3-3--5-5--7-3-----
E----------------------3-------3-------------------
     *The Rest Of The Verses* (4 of them)
e--------------------------------------------------
B--------------------------------------------------
G--------------------------------------------------
D--1p0-----------5--5-7-7-10-10-5--5-7-7-10-10-7-5-
A------3-3-3-5-7-----------------------------------
E--------------------------------------------------

e---------------
B---------------
G---------------
D--5-7-5-3-2-0--
A---------------
E---------------

e--------------------------------------------------
B--------------------------------------------------
G--------------------------------------------------
D--1p0-----------5-5-5-7-7-10-10-5--5-7-7-5-5-7-7-5
A------3-3-3-5-5-----------------------------------
E--------------------------------------------------

e------------------------------------
B------------------------------------
G------------------------------------
D-5-7-7-5-5-7-7-5-5-7-7-7------------
A-------------------------7-5-3-3-3--
E------------------------------------

This is the version from the "O Brother Where Art Tou"
soundtrack. Please rate this tab and if you have any 
comments, feel free to post them. Thanx.
  *I Love Ya Tiff!*


Harry McClintock Tabs & Chords



Harry McClintock Tabs, Tablatures, Chords, Lyrics

Buy Harry McClintock CD
Harry McClintock
Buy Harry McClintock CD

  1. Harry McClintock - Big Rock Candy Mountian Tabs



cowboylyrics.com
All lyrics are property and copyright of their owners. All lyrics provided for educational purposes only.