, Centerfold Tabs, Chords, Lyrics

, Centerfold Tabs, Chords

 SITE MENU
 Request Tabs
 Add/Correct Tabs
 DMCA Policy
 Country Sheet Music
0

BROWSE LYRICS AND TABS BY ARTIST/BAND NAME: SEARCH HERE:
A B C D E F G H I J K L M N O P Q R S T U V W X Y Z #
 

- Centerfold (Chords)


CD
 Sheet music
Posters
Intro (main riff): 

E----------10-------------------------------------------------------|
B --10/12------12p10---------------------------10-------------------|
G --------------------12-12----12-9-12-12--9-12----12-12------------|
D ------------------------------------------------------------------|
A ------------------------------------------------------------------|
E ------------------------------------------------------------------|


Verse 1:

G 	       F              C                 F   C
Does she walk, does she talk, does she come complete

   G                    F           C               F   C
My home-brew, home-room angel, just pulled me to my feet

G                 F              C              F    C
She was pure like snowflakes, no one could ever stain

    G            F           C              F   C
The memory of my angel could never cause me pain

    Em                             Am        C   D
The years go by I'm looking thru a girly magazine

    Em                           Am          C   D
And there's my home angel on the pages in between


Chorus:


   G              F        C          F         C
My blood runs cold,     my memory has just been sold

   G            F          C             F         C
My angel is tha centrefold (angel is the centrefold)

   G              F    C      F             C
My blood runs cold, my memory has just been sold



Main Riff:



E----------10-------------------------------------------------------|
B --10/12------12p10---------------------------10-------------------|
G --------------------12-12----12-9-12-12--9-12----12-12------------|
D ------------------------------------------------------------------|
A ------------------------------------------------------------------|
E ------------------------------------------------------------------|
                               My angel is a centerfold...




Verse 2:


        Slip me notes under the desk
	While I was thinking about her dress
	I was shy, I turned away
	Before she caught my eye
	I was shaking in my shoes
	Whenever she flashed those baby blues
	Something had a hold on me
	When my angel passes by


        Those soft fluffy sweaters, to magical to touch
	To see her in that negligee is really just to much


Chorus:


   G              F        C          F         C
My blood runs cold,     my memory has just been sold

   G            F          C             F         C
My angel is tha centrefold (angel is the centrefold)

   G              F    C      F             C
My blood runs cold, my memory has just been sold



Main Riff:



E----------10-------------------------------------------------------|
B --10/12------12p10---------------------------10-------------------|
G --------------------12-12----12-9-12-12--9-12----12-12------------|
D ------------------------------------------------------------------|
A ------------------------------------------------------------------|
E ------------------------------------------------------------------|
                               My angel is a centerfold...


    na na  na  na na  na na    na nana na  nanana  na na
E----------10-------------------------------------------------------|
B --10/12------12p10---------------------------10-------------------|
G --------------------12-12----12-9-12-12--9-12----12-12------------|
D ------------------------------------------------------------------|
A ------------------------------------------------------------------|
E ------------------------------------------------------------------|


Verse 3:  
  
        It's ok I understand
	This ain't no never never land
	I hope that when this issues gone
	I'll see you when your clothes are on
	Take your car, yes we will
	We'll take your car and drive it
	Take it to a motel room
	And take them off in private
 
	A part of me has just been ripped
	The pages from my mind are stripped
	Oh no, I can't deny it
	Oh yeah, I guess I gotta buy it



Chorus:


   G              F        C          F         C
My blood runs cold,     my memory has just been sold

   G            F          C             F         C
My angel is tha centrefold (angel is the centrefold)

   G              F    C      F             C
My blood runs cold, my memory has just been sold



Main Riff:



E----------10-------------------------------------------------------|
B --10/12------12p10---------------------------10-------------------|
G --------------------12-12----12-9-12-12--9-12----12-12------------|
D ------------------------------------------------------------------|
A ------------------------------------------------------------------|
E ------------------------------------------------------------------|
                               My angel is a centerfold...



Alright,  3 4  


    na na  na  na na  na na    na nana na  nanana  na na  
E----------10-------------------------------------------------------|
B --10/12------12p10---------------------------10-------------------|
G --------------------12-12----12-9-12-12--9-12----12-12------------|
D ------------------------------------------------------------------|
A ------------------------------------------------------------------|
E ------------------------------------------------------------------|    (3 times)


Hayseed Dixie Tabs & Chords



Hayseed Dixie Tabs, Tablatures, Chords, Lyrics

Buy Hayseed Dixie CD
Hayseed Dixie
Buy Hayseed Dixie CD

  1. Hayseed Dixie - Best Friend's Girl Chords
  2. Hayseed Dixie - Big Balls Chords
  3. Hayseed Dixie - Centerfold Chords
  4. Hayseed Dixie - Fat Bottom Girls Chords
  5. Hayseed Dixie - Gin And Juice Chords
  6. Hayseed Dixie - Highway To Hell Chords
  7. Hayseed Dixie - Keeping Your Poop In A Jar Chords
  8. Hayseed Dixie - She Was Skinny When I Met Her Chords
  9. Hayseed Dixie - Walk This Way Tabs
  10. Hayseed Dixie - You Shook Me All Night Long Chords



cowboylyrics.com
All lyrics are property and copyright of their owners. All lyrics provided for educational purposes only.