, Walk This Way Tabs, Chords, Lyrics

, Walk This Way Tabs, Chords

 SITE MENU
 Request Tabs
 Add/Correct Tabs
 DMCA Policy
 Country Sheet Music
0

BROWSE LYRICS AND TABS BY ARTIST/BAND NAME: SEARCH HERE:
A B C D E F G H I J K L M N O P Q R S T U V W X Y Z #
 

- Walk This Way (Tabs)


CD
 Sheet music
Posters
Hayseed Dixie
"Walk This Way"


*************************

  C7        F7        A5

E-0-      E-1-      E-x-
B-1-      B-1-      B-x-
G-3-      G-2-      G-2-
D-2-      D-1-      D-2-
A-3-      A-3-      A-0-
E-0-      E-1-      E-x-

*************************
x= mute

^= slight bend 
*************************


Intro:


E -------------------------------------------
B -------------------------------------------
G -------------------------------------------
D --------2-------2---x--------2-------2-x-2^
A --0-1-2---0-1-2-----x--0-1-2---0-1-2---x---
E ------------------0-x----------------------

E -------------------------------------------
B -------------------------------------------
G -------------------------------------------
D --------2-------2------------2-------2-----
A --0-1-2---0-1-2--------0-1-2---0-1-2-------
E ------------------0--------------------3^--


Verse:

  C7
Backstroke lover always hidin' 'neath the covers

Gonna talk to your daddy and say
          
Said you ain't seen nothin' till you're down on a muffin

Then you're sure to be a-changin' your ways
        C7         
I met a cheerleader, was a real young bleeder

Ooh, the times I could reminisce
          
Cause the best things of lovin' with her sister and her cousin

                                      A5
Only started with a little kiss, like this!




E -------------------------------------------
B -------------------------------------------
G -------------------------------------------
D --------2-------2---x--------2-------2-x-2^
A --0-1-2---0-1-2-----x--0-1-2---0-1-2---x---
E ------------------0-x----------------------

E -------------------------------------------
B -------------------------------------------
G -------------------------------------------
D --------2-------2------------2-------2-----
A --0-1-2---0-1-2--------0-1-2---0-1-2-------
E ------------------0--------------------3^--



Verse 2:

 C7
seesaw swingin' with the boys in the school

and your feet flyin' up in the air
        
singin' hey diddle diddle

with your kitty in the middle of the swing

like you didn't care

     C7
so I took a big chance at the high school dance

with a missy who was ready to play
          
it wasn't me she was foolin'

cause she knew what she was doin'

when she told me how to walk this way, she told me to


Chorus:

C7             F7
walk this way, talk this way
C7             F7
walk this way, talk this way she told me to 
C7             F7
walk this way, talk this way she told me to
C7             F7
walk this way, talk this way
             C7
just gimme a kiss



Solo: C7


     A5
        
like this!



E -------------------------------------------
B -------------------------------------------
G -------------------------------------------
D --------2-------2---x--------2-------2-x-2^
A --0-1-2---0-1-2-----x--0-1-2---0-1-2---x---
E ------------------0-x----------------------

E -------------------------------------------
B -------------------------------------------
G -------------------------------------------
D --------2-------2------------2-------2-----
A --0-1-2---0-1-2--------0-1-2---0-1-2-------
E ------------------0--------------------3^--




Verse 3:

 C7
schoolgirl sweetie with a classy kinda sassy

little skirt's climbin' way up the knee
           
there was three young ladies in the school gym locker

when I noticed they was lookin' at me
        C7
I was a high school loser, never made it with a lady

till the boys told me somethin' I missed
        
then my next door neighbor with a daughter had a favor
                                      A5
so I gave her just a little kiss like this!



E -------------------------------------------
B -------------------------------------------
G -------------------------------------------
D --------2-------2---x--------2-------2-x-2^
A --0-1-2---0-1-2-----x--0-1-2---0-1-2---x---
E ------------------0-x----------------------

E -------------------------------------------
B -------------------------------------------
G -------------------------------------------
D --------2-------2------------2-------2-----
A --0-1-2---0-1-2--------0-1-2---0-1-2-------
E ------------------0--------------------3^--




Verse 4:

 C7
seesaw swingin' with the boys in the school

and your feet flyin' up in the air
        
singin' hey diddle diddle

with your kitty in the middle of the swing

like you didn't care
     C7
so I took a big chance at the high school dance

with a missy who was ready to play
       
wasn't me she was foolin'

cause she knew what she was doin'

when she told me how to walk this way, she told me to



Chorus:

C7             F7
walk this way, talk this way
C7             F7
walk this way, walk this way
C7             F7
walk this way, walk this way
C7             F7
walk this way, talk this way
             C7
just gimme a kiss 


Solo:  C7

     A5   

like this!



E -------------------------------------------
B -------------------------------------------
G -------------------------------------------
D --------2-------2---x--------2-------2-x-2^
A --0-1-2---0-1-2-----x--0-1-2---0-1-2---x---
E ------------------0-x----------------------

E -------------------------------------------
B -------------------------------------------
G ----------------------------------------2--
D --------2-------2------------2-------2--2--
A --0-1-2---0-1-2--------0-1-2---0-1-2----0--
E ------------------0------------------------

(2 times)


E -------------------------------------------
B -------------------------------------------
G -------------------------------------------
D --------2-------2---x--------2-------2-x-2^
A --0-1-2---0-1-2-----x--0-1-2---0-1-2---x---
E ------------------0-x----------------------

E --------------------------------------------
B --------------------------------------------
G ----------------------------------------2-2-
D --------2-------2------------2-------2--2-2-
A --0-1-2---0-1-2--------0-1-2---0-1-2----0-0-
E ------------------0-------------------------


E -------------------------------------------
B -------------------------------------------
G -------------------------------------------
D --------2-------2---x--------2-------2-x-2^
A --0-1-2---0-1-2-----x--0-1-2---0-1-2---x---
E ------------------0-x----------------------

E -------------------------------------------
B -------------------------------------------
G ----------------------------------------2--
D --------2-------2------------2-------2--2--
A --0-1-2---0-1-2--------0-1-2---0-1-2----0--
E ------------------0------------------------

(2 times)


E -------------------------------------------
B -------------------------------------------
G -------------------------------------------
D --------2-------2---x--------2-------2-x-2^
A --0-1-2---0-1-2-----x--0-1-2---0-1-2---x---
E ------------------0-x----------------------

E --------------------------------------------
B --------------------------------------------
G ----------------------------------------2-2-
D --------2-------2------------2-------2--2-2-
A --0-1-2---0-1-2--------0-1-2---0-1-2----0-0-
E ------------------0-------------------------


Hayseed Dixie Tabs & Chords



Hayseed Dixie Tabs, Tablatures, Chords, Lyrics

Buy Hayseed Dixie CD
Hayseed Dixie
Buy Hayseed Dixie CD

  1. Hayseed Dixie - Best Friend's Girl Chords
  2. Hayseed Dixie - Big Balls Chords
  3. Hayseed Dixie - Centerfold Chords
  4. Hayseed Dixie - Fat Bottom Girls Chords
  5. Hayseed Dixie - Gin And Juice Chords
  6. Hayseed Dixie - Highway To Hell Chords
  7. Hayseed Dixie - Keeping Your Poop In A Jar Chords
  8. Hayseed Dixie - She Was Skinny When I Met Her Chords
  9. Hayseed Dixie - Walk This Way Tabs
  10. Hayseed Dixie - You Shook Me All Night Long Chords



cowboylyrics.com
All lyrics are property and copyright of their owners. All lyrics provided for educational purposes only.