, You Shook Me All Night Long Tabs, Chords, Lyrics

, You Shook Me All Night Long Tabs, Chords

 SITE MENU
 Request Tabs
 Add/Correct Tabs
 DMCA Policy
 Country Sheet Music
0

BROWSE LYRICS AND TABS BY ARTIST/BAND NAME: SEARCH HERE:
A B C D E F G H I J K L M N O P Q R S T U V W X Y Z #
 

- You Shook Me All Night Long (Chords)


CD
 Sheet music
Posters
INTRO:

E|--3~--------5--|----3--3-----3--2--------|--------------|
B|--3~--------3--|----3-----3--------3-----|--3-----------|
G|--0~--------0--|-------------------------|--2-----2--2--|
D|---------------|----------------------0--|--0-----3b-0--|
A|---------------|-------------------------|--------------|
E|---------------|-------------------------|--------------|

|-------------------|--3~------5--|--3--3-----3--2--------|
|----------3--------|--3~------3--|--3-----3--------3-----|
|----------2--------|--0~------0--|-----------------------|
|----3/-4-----3b-0--|-------------|--------------------0--|
|-------------------|-------------|-----------------------|
|-------------------|-------------|-----------------------|

|--2----------|-----------|
|--3----------|-----------|
|--2----------|-----------|
|--0----------|-----------|
|-------------|-----------|
|-------------|-------0-2-| G   C G C G/B D   C G C G/B X2


verse 1
          G
She was a fast machine
             C G   C
She kept her motor clean
    G/B     D                     C G  C
She was the best damn woman I had ever seen
    G/B     G
She had the sightless eyes
        C  G  C    G/B
Telling me no lies
D                         C    G   C
Knockin' me out with them American thighs
G/B    G
Taking more than her share
       C        G   C
Had me fighting for air
G/B D                         C G     C
She told me to come but I was already there
G/B     G
and the walls were shaking
    C     G   C
The earth was quaking
G/B  D
My   mind was aching

And we were making it and 


G            C   G/B   D    C
you Shook me all night long,   let me tell ya'now
G            C   G/B   D    C
you Shook me all night long


verse 2

Working double time
On the seduction line
She was one of a kind, she's just mine all mine
She wanted no applause
Just another course
Made a meal out of me and came back for more
Had to cool me down
To take another round
Now I'm back in the ring to take another swing
yeah the walls were shaking
The earth was quaking
My mind was aching
And we were making it and

chorus:
G            C   G/B   D     C
you Shook me all night long, have mercy lord
G            C   G/B   D     C
you Shook me all night long, you really took me and
G            C   G/B   D     C
you Shook me all night long, knockin' me out said
G            C   G/B   D
you Shook me all night long, 

yeah you shook me, you really took me


INERLUDE: chorus   G      C  G  C  G/B   D     C  X4


chorus:
G            C   G/B   D     C
you Shook me all night long, you really took me and
G            C   G/B   D     C
you Shook me all night long, knockin' me out said
G            C   G/B   D     C
you Shook me all night long, you really took it and
G            C   G/B   D    
you Shook me all night long,

yeah you shook me, you really took me

All night long.


G=320011  C=X32011  D=XX0232  G/B=X20033


 thanks to gotar for "borrowed" intro


Hayseed Dixie Tabs & Chords



Hayseed Dixie Tabs, Tablatures, Chords, Lyrics

Buy Hayseed Dixie CD
Hayseed Dixie
Buy Hayseed Dixie CD

  1. Hayseed Dixie - Best Friend's Girl Chords
  2. Hayseed Dixie - Big Balls Chords
  3. Hayseed Dixie - Centerfold Chords
  4. Hayseed Dixie - Fat Bottom Girls Chords
  5. Hayseed Dixie - Gin And Juice Chords
  6. Hayseed Dixie - Highway To Hell Chords
  7. Hayseed Dixie - Keeping Your Poop In A Jar Chords
  8. Hayseed Dixie - She Was Skinny When I Met Her Chords
  9. Hayseed Dixie - Walk This Way Tabs
  10. Hayseed Dixie - You Shook Me All Night Long Chords



cowboylyrics.com
All lyrics are property and copyright of their owners. All lyrics provided for educational purposes only.