, Axe To Grind(intro & Main Theme) Tabs, Chords, Lyrics

, Axe To Grind(intro & Main Theme) Tabs, Chords

 SITE MENU
 Request Tabs
 Add/Correct Tabs
 DMCA Policy
 Country Sheet Music
0

BROWSE LYRICS AND TABS BY ARTIST/BAND NAME: SEARCH HERE:
A B C D E F G H I J K L M N O P Q R S T U V W X Y Z #
 

- Axe To Grind(intro & Main Theme) (Tabs)


CD
 Sheet music
Posters
Hellecasters: Axe To Grind

Hold on tight this is a wild ride. I hybrided the bridge for one guitar.

Use a pick and fingers throughout. Solos to follow as soon as my hands recover.

Enjoy !




Let notes ring throughout opening lick

E---------------0------------------------------------------
B---------8---0-------0---------------1---0----------------
G-----7-----7-----7\5---------0---3-4---3---0-----------0--
D-7h9---9---------------7---7---0-------------2-0-0-1-2----
A-------------------------8--------------------------------
E---------------------------------------------------------3b


E----------------------------------------------------------
B----------------------------------------------------------
G---2-------2---------2--------2---2---------0-------------
D---2-----2-----------2--------2---2-------4-------7-------
A-0---3h4-----0---------0--3h4---0---3h4h5-----7h9---------
E-----------------3h5--------------------------------------


E----------------------------------------------------------
B----------------------------------------------------------
G---2-------2-------2-------2----2-----2-------------------
D---2-----2---------2-------2----2-----0-------------------
A-0---3h4-----0-------0-3h4----0-----------2h3-------------
E---------------3h5----------------3-2---3-----------------


E----------------------------------------------------------
B----------------------------------------------------------
G---2-------2-------2-------2----2---------0---------------
D---2-----2---------2-------2----2-------4-------7---------
A-0---3h4-----0-------0-3h4----0---3h4h5-----7h9-----------
E---------------3h5----------------------------------------


E----------------------------------------------------12--
B-----3-------0--------------------------------------12--
G---0-------0-----2p0--------------0h1-2---0h1-------------
D-5-----1h2-----4---------0------2-------2-----2-----------
A---------------------2p0----------------------------------
E---------------------------3b-0-----------------0---------

E----------------------------------------------------------
B----------------------------------------------------------
G---2-------2-------2-------2----2---------0---------------
D---2-----2---------2-------2----2-------4-------7---------
A-0---3h4-----0-------0-3h4----0---3h4h5-----7h9-----------
E---------------3h5----------------------------------------

E----------------------------------------------------------
B----------------------------------------------------------
G---2-------2-------2-------2----2-----2-------------------
D---2-----2---------2-------2----2-----0-------------------
A-0---3h4-----0-------0-3h4----0-----------2h3-------------
E---------------3h5----------------3-2---3-----------------


E----------------------------------------------------------
B----------------------------------------------------------
G---2-------2-------2-------2----2---------0---------------
D---2-----2---------2-------2----2-------4-------7---------
A-0---3h4-----0-------0-3h4----0---3h4h5-----7h9-----------
E---------------3h5----------------------------------------


E-----------------------------------0----------------------
B-----3-------0--------------------------------0bbn(2)r0---
G---0-------0-----2p0-------------6--5h6---0---0bbn(2)r0---
D-5-----1h2-----4---------0--------------7-----------------
A---------------------2p0------0-------------7-------------
E---------------------------3b-----------------------------

This section is bastardized for one guitar

E----------------------------------------------------------
B-----3-5\3-----5-6p5-7-----3-5\3-----5-6p5-3h5-3----------
G-------------------------------------------4h5-4----------
D-2/3---5\3-3/5---7p5-7-2/3---5\3-3/5---7p5----------------
A----------------------------------------------------------
E----------------------------------------------------------

E------------------------------8-8h10p8--------------------
B-----8-10\8------10-11p10----------------6------8-----10--
G--------------------------8/9---9h10p9---5br-3--7br-5--9b-
D-7/8---10\8-8/10----12p10---------------------------------
A----------------------------------------------------------
E----------------------------------------------------------

Return to one guitar

E----------------------------------------------------------
B----------------------------------------------------------
G---2-------2-------2-------2----2---------0---------------
D---2-----2---------2-------2----2-------4-------7---------
A-0---3h4-----0-------0-3h4----0---3h4h5-----7h9-----------
E---------------3h5----------------------------------------

E----------------------------------------------------------
B----------------------------------------------------------
G---2-------2-------2-------2----2-----2-------------------
D---2-----2---------2-------2----2-----0-------------------
A-0---3h4-----0-------0-3h4----0-----------2h3-------------
E---------------3h5----------------3-2---3-----------------


E----------------------------------------------------------
B----------------------------------------------------------
G---2-------2-------2-------2----2---------0---------------
D---2-----2---------2-------2----2-------4-------7---------
A-0---3h4-----0-------0-3h4----0---3h4h5-----7h9-----------
E---------------3h5----------------------------------------


E-----------------------------------0----------------------
B-----3-------0--------------------------------0bbn(2)r0---
G---0-------0-----2p0-------------6--5h6---0---0bbn(2)r0---
D-5-----1h2-----4---------0--------------7-----------------
A---------------------2p0------0-------------7-------------
E---------------------------3b-----------------------------

This section is bastardized for one guitar

E----------------------------------------------------------
B-----3-5\3-----5-6p5-7-----3-5\3-----5-6p5-3h5-3----------
G-------------------------------------------4h5-4----------
D-2/3---5\3-3/5---7p5-7-2/3---5\3-3/5---7p5----------------
A----------------------------------------------------------
E----------------------------------------------------------

E------------------------------8-8h10p8--------------------
B-----8-10\8------10-11p10----------------6------8---------
G--------------------------8/9---9h10p9---5br-3--7br-5-----
D-7/8---10\8-8/10----12p10---------------------------------
A----------------------------------------------------------
E----------------------------------------------------------

E---------------0------------------------------------------
B---------8---0-------0---------------1---0----------------
G-----7-----7-----7\5---------0---3-4---3---0-----0--------
D-7h9---9---------------7---7---0-------------2-0---5-4-3--
A-------------------------8-------------------------------5b
E----------------------------------------------------------


Hellecasters Tabs & Chords



Hellecasters Tabs, Tablatures, Chords, Lyrics

Buy Hellecasters CD
Hellecasters
Buy Hellecasters CD

  1. Hellecasters - Axe To Grind(intro & Main Theme) Tabs
  2. Hellecasters - Axe To Grind(solos 1-3 & Break) Tabs
  3. Hellecasters - Hellecasters Theme Tabs
  4. Hellecasters - The Beak & The Claw Tabs



cowboylyrics.com
All lyrics are property and copyright of their owners. All lyrics provided for educational purposes only.